  0
SECTION
  2
HEADER
  9
$ACADVER
  1
AC1024
  9
$ACADMAINTVER
 70
   205
  9
$DWGCODEPAGE
  3
ANSI_1252
  9
$INSBASE
 10
0.0
 20
0.0
 30
0.0
  9
$EXTMIN
 10
1.000000000000000E+20
 20
1.000000000000000E+20
 30
1.000000000000000E+20
  9
$EXTMAX
 10
-1.000000000000000E+20
 20
-1.000000000000000E+20
 30
-1.000000000000000E+20
  9
$LIMMIN
 10
0.0
 20
0.0
  9
$LIMMAX
 10
12.0
 20
9.0
  9
$ORTHOMODE
 70
     0
  9
$REGENMODE
 70
     1
  9
$FILLMODE
 70
     1
  9
$QTEXTMODE
 70
     0
  9
$MIRRTEXT
 70
     1
  9
$LTSCALE
 40
1.0
  9
$ATTMODE
 70
     1
  9
$TEXTSIZE
 40
0.2
  9
$TRACEWID
 40
0.05
  9
$TEXTSTYLE
  7
Standard
  9
$CLAYER
  8
Si90 Lampe weiss
  9
$CELTYPE
  6
ByLayer
  9
$CECOLOR
 62
   256
  9
$CELTSCALE
 40
1.0
  9
$DISPSILH
 70
     0
  9
$DIMSCALE
 40
1.0
  9
$DIMASZ
 40
0.18
  9
$DIMEXO
 40
0.0625
  9
$DIMDLI
 40
0.38
  9
$DIMRND
 40
0.0
  9
$DIMDLE
 40
0.0
  9
$DIMEXE
 40
0.18
  9
$DIMTP
 40
0.0
  9
$DIMTM
 40
0.0
  9
$DIMTXT
 40
0.18
  9
$DIMCEN
 40
0.09
  9
$DIMTSZ
 40
0.0
  9
$DIMTOL
 70
     0
  9
$DIMLIM
 70
     0
  9
$DIMTIH
 70
     1
  9
$DIMTOH
 70
     1
  9
$DIMSE1
 70
     0
  9
$DIMSE2
 70
     0
  9
$DIMTAD
 70
     0
  9
$DIMZIN
 70
     0
  9
$DIMBLK
  1

  9
$DIMASO
 70
     1
  9
$DIMSHO
 70
     1
  9
$DIMPOST
  1

  9
$DIMAPOST
  1

  9
$DIMALT
 70
     0
  9
$DIMALTD
 70
     2
  9
$DIMALTF
 40
25.4
  9
$DIMLFAC
 40
1.0
  9
$DIMTOFL
 70
     0
  9
$DIMTVP
 40
0.0
  9
$DIMTIX
 70
     0
  9
$DIMSOXD
 70
     0
  9
$DIMSAH
 70
     0
  9
$DIMBLK1
  1

  9
$DIMBLK2
  1

  9
$DIMSTYLE
  2
Standard
  9
$DIMCLRD
 70
     0
  9
$DIMCLRE
 70
     0
  9
$DIMCLRT
 70
     0
  9
$DIMTFAC
 40
1.0
  9
$DIMGAP
 40
0.09
  9
$DIMJUST
 70
     0
  9
$DIMSD1
 70
     0
  9
$DIMSD2
 70
     0
  9
$DIMTOLJ
 70
     1
  9
$DIMTZIN
 70
     0
  9
$DIMALTZ
 70
     0
  9
$DIMALTTZ
 70
     0
  9
$DIMUPT
 70
     0
  9
$DIMDEC
 70
     4
  9
$DIMTDEC
 70
     4
  9
$DIMALTU
 70
     2
  9
$DIMALTTD
 70
     2
  9
$DIMTXSTY
  7
Standard
  9
$DIMAUNIT
 70
     0
  9
$DIMADEC
 70
     0
  9
$DIMALTRND
 40
0.0
  9
$DIMAZIN
 70
     0
  9
$DIMDSEP
 70
    46
  9
$DIMATFIT
 70
     3
  9
$DIMFRAC
 70
     0
  9
$DIMLDRBLK
  1

  9
$DIMLUNIT
 70
     2
  9
$DIMLWD
 70
    -2
  9
$DIMLWE
 70
    -2
  9
$DIMTMOVE
 70
     0
  9
$DIMFXL
 40
1.0
  9
$DIMFXLON
 70
     0
  9
$DIMJOGANG
 40
0.7853981633974483
  9
$DIMTFILL
 70
     0
  9
$DIMTFILLCLR
 70
     0
  9
$DIMARCSYM
 70
     0
  9
$DIMLTYPE
  6

  9
$DIMLTEX1
  6

  9
$DIMLTEX2
  6

  9
$DIMTXTDIRECTION
 70
     0
  9
$LUNITS
 70
     2
  9
$LUPREC
 70
     4
  9
$SKETCHINC
 40
0.1
  9
$FILLETRAD
 40
0.5
  9
$AUNITS
 70
     0
  9
$AUPREC
 70
     0
  9
$MENU
  1
.
  9
$ELEVATION
 40
0.0
  9
$PELEVATION
 40
0.0
  9
$THICKNESS
 40
0.0
  9
$LIMCHECK
 70
     0
  9
$CHAMFERA
 40
0.5
  9
$CHAMFERB
 40
0.5
  9
$CHAMFERC
 40
1.0
  9
$CHAMFERD
 40
0.0
  9
$SKPOLY
 70
     0
  9
$TDCREATE
 40
2451380.847099063
  9
$TDUCREATE
 40
2451380.805432396
  9
$TDUPDATE
 40
2451380.882847222
  9
$TDUUPDATE
 40
2451380.841180556
  9
$TDINDWG
 40
0.0075617245
  9
$TDUSRTIMER
 40
0.0075526852
  9
$USRTIMER
 70
     1
  9
$ANGBASE
 50
0.0
  9
$ANGDIR
 70
     0
  9
$PDMODE
 70
     0
  9
$PDSIZE
 40
0.0
  9
$PLINEWID
 40
0.0
  9
$SPLFRAME
 70
     0
  9
$SPLINETYPE
 70
     6
  9
$SPLINESEGS
 70
     8
  9
$HANDSEED
  5
144
  9
$SURFTAB1
 70
     6
  9
$SURFTAB2
 70
     6
  9
$SURFTYPE
 70
     6
  9
$SURFU
 70
     6
  9
$SURFV
 70
     6
  9
$UCSBASE
  2

  9
$UCSNAME
  2

  9
$UCSORG
 10
0.0
 20
0.0
 30
0.0
  9
$UCSXDIR
 10
1.0
 20
0.0
 30
0.0
  9
$UCSYDIR
 10
0.0
 20
1.0
 30
0.0
  9
$UCSORTHOREF
  2

  9
$UCSORTHOVIEW
 70
     0
  9
$UCSORGTOP
 10
0.0
 20
0.0
 30
0.0
  9
$UCSORGBOTTOM
 10
0.0
 20
0.0
 30
0.0
  9
$UCSORGLEFT
 10
0.0
 20
0.0
 30
0.0
  9
$UCSORGRIGHT
 10
0.0
 20
0.0
 30
0.0
  9
$UCSORGFRONT
 10
0.0
 20
0.0
 30
0.0
  9
$UCSORGBACK
 10
0.0
 20
0.0
 30
0.0
  9
$PUCSBASE
  2

  9
$PUCSNAME
  2

  9
$PUCSORG
 10
0.0
 20
0.0
 30
0.0
  9
$PUCSXDIR
 10
1.0
 20
0.0
 30
0.0
  9
$PUCSYDIR
 10
0.0
 20
1.0
 30
0.0
  9
$PUCSORTHOREF
  2

  9
$PUCSORTHOVIEW
 70
     0
  9
$PUCSORGTOP
 10
0.0
 20
0.0
 30
0.0
  9
$PUCSORGBOTTOM
 10
0.0
 20
0.0
 30
0.0
  9
$PUCSORGLEFT
 10
0.0
 20
0.0
 30
0.0
  9
$PUCSORGRIGHT
 10
0.0
 20
0.0
 30
0.0
  9
$PUCSORGFRONT
 10
0.0
 20
0.0
 30
0.0
  9
$PUCSORGBACK
 10
0.0
 20
0.0
 30
0.0
  9
$USERI1
 70
     0
  9
$USERI2
 70
     0
  9
$USERI3
 70
     0
  9
$USERI4
 70
     0
  9
$USERI5
 70
     0
  9
$USERR1
 40
0.0
  9
$USERR2
 40
0.0
  9
$USERR3
 40
0.0
  9
$USERR4
 40
0.0
  9
$USERR5
 40
0.0
  9
$WORLDVIEW
 70
     1
  9
$SHADEDGE
 70
     3
  9
$SHADEDIF
 70
    70
  9
$TILEMODE
 70
     1
  9
$MAXACTVP
 70
    64
  9
$PINSBASE
 10
0.0
 20
0.0
 30
0.0
  9
$PLIMCHECK
 70
     0
  9
$PEXTMIN
 10
1.000000000000000E+20
 20
1.000000000000000E+20
 30
1.000000000000000E+20
  9
$PEXTMAX
 10
-1.000000000000000E+20
 20
-1.000000000000000E+20
 30
-1.000000000000000E+20
  9
$PLIMMIN
 10
0.0
 20
0.0
  9
$PLIMMAX
 10
12.0
 20
9.0
  9
$UNITMODE
 70
     0
  9
$VISRETAIN
 70
     1
  9
$PLINEGEN
 70
     0
  9
$PSLTSCALE
 70
     1
  9
$TREEDEPTH
 70
  3020
  9
$CMLSTYLE
  2
Standard
  9
$CMLJUST
 70
     0
  9
$CMLSCALE
 40
1.0
  9
$PROXYGRAPHICS
 70
     1
  9
$MEASUREMENT
 70
     1
  9
$CELWEIGHT
370
    -1
  9
$ENDCAPS
280
     0
  9
$JOINSTYLE
280
     0
  9
$LWDISPLAY
290
     0
  9
$INSUNITS
 70
     4
  9
$HYPERLINKBASE
  1

  9
$STYLESHEET
  1

  9
$XEDIT
290
     1
  9
$CEPSNTYPE
380
     0
  9
$PSTYLEMODE
290
     1
  9
$FINGERPRINTGUID
  2
{12F50282-3ED8-11D3-A8B7-0060B0F84BC6}
  9
$VERSIONGUID
  2
{12F50293-3ED8-11D3-A8B7-0060B0F84BC6}
  9
$EXTNAMES
290
     1
  9
$PSVPSCALE
 40
0.0
  9
$OLESTARTUP
290
     0
  9
$SORTENTS
280
   127
  9
$INDEXCTL
280
     0
  9
$HIDETEXT
280
     0
  9
$XCLIPFRAME
280
     2
  9
$HALOGAP
280
     0
  9
$OBSCOLOR
 70
   257
  9
$OBSLTYPE
280
     0
  9
$INTERSECTIONDISPLAY
280
     0
  9
$INTERSECTIONCOLOR
 70
   257
  9
$DIMASSOC
280
     1
  9
$PROJECTNAME
  1

  9
$CAMERADISPLAY
290
     0
  9
$LENSLENGTH
 40
50.0
  9
$CAMERAHEIGHT
 40
0.0
  9
$STEPSPERSEC
 40
2.0
  9
$STEPSIZE
 40
6.0
  9
$3DDWFPREC
 40
2.0
  9
$PSOLWIDTH
 40
0.25
  9
$PSOLHEIGHT
 40
4.0
  9
$LOFTANG1
 40
1.570796326794896
  9
$LOFTANG2
 40
1.570796326794896
  9
$LOFTMAG1
 40
0.0
  9
$LOFTMAG2
 40
0.0
  9
$LOFTPARAM
 70
     7
  9
$LOFTNORMALS
280
     1
  9
$LATITUDE
 40
37.795
  9
$LONGITUDE
 40
-122.394
  9
$NORTHDIRECTION
 40
0.0
  9
$TIMEZONE
 70
 -8000
  9
$LIGHTGLYPHDISPLAY
280
     1
  9
$TILEMODELIGHTSYNCH
280
     1
  9
$CMATERIAL
347
AB
  9
$SOLIDHIST
280
     0
  9
$SHOWHIST
280
     1
  9
$DWFFRAME
280
     2
  9
$DGNFRAME
280
     0
  9
$REALWORLDSCALE
290
     1
  9
$INTERFERECOLOR
 62
     1
  9
$INTERFEREOBJVS
345
CD
  9
$INTERFEREVPVS
346
CA
  9
$CSHADOW
280
     0
  9
$SHADOWPLANELOCATION
 40
0.0
  0
ENDSEC
  0
SECTION
  2
CLASSES
  0
CLASS
  1
ACDBDICTIONARYWDFLT
  2
AcDbDictionaryWithDefault
  3
ObjectDBX Classes
 90
        0
 91
        1
280
     0
281
     0
  0
CLASS
  1
ACDBPLACEHOLDER
  2
AcDbPlaceHolder
  3
ObjectDBX Classes
 90
        0
 91
        2
280
     0
281
     0
  0
CLASS
  1
LAYOUT
  2
AcDbLayout
  3
ObjectDBX Classes
 90
        0
 91
        3
280
     0
281
     0
  0
CLASS
  1
MATERIAL
  2
AcDbMaterial
  3
ObjectDBX Classes
 90
     1153
 91
        3
280
     0
281
     0
  0
CLASS
  1
VISUALSTYLE
  2
AcDbVisualStyle
  3
ObjectDBX Classes
 90
     4095
 91
       24
280
     0
281
     0
  0
CLASS
  1
TABLESTYLE
  2
AcDbTableStyle
  3
ObjectDBX Classes
 90
     4095
 91
        1
280
     0
281
     0
  0
CLASS
  1
SCALE
  2
AcDbScale
  3
ObjectDBX Classes
 90
     1153
 91
       17
280
     0
281
     0
  0
CLASS
  1
MLEADERSTYLE
  2
AcDbMLeaderStyle
  3
ACDB_MLEADERSTYLE_CLASS
 90
     4095
 91
        1
280
     0
281
     0
  0
CLASS
  1
ACDBSECTIONVIEWSTYLE
  2
AcDbSectionViewStyle
  3
ObjectDBX Classes
 90
     1025
 91
        1
280
     0
281
     0
  0
CLASS
  1
ACDBDETAILVIEWSTYLE
  2
AcDbDetailViewStyle
  3
ObjectDBX Classes
 90
     1025
 91
        1
280
     0
281
     0
  0
CLASS
  1
MESH
  2
AcDbSubDMesh
  3
ObjectDBX Classes
 90
        0
 91
        4
280
     0
281
     1
  0
CLASS
  1
DICTIONARYVAR
  2
AcDbDictionaryVar
  3
ObjectDBX Classes
 90
        0
 91
        9
280
     0
281
     0
  0
CLASS
  1
CELLSTYLEMAP
  2
AcDbCellStyleMap
  3
ObjectDBX Classes
 90
     1152
 91
        1
280
     0
281
     0
  0
ENDSEC
  0
SECTION
  2
TABLES
  0
TABLE
  2
VPORT
  5
8
330
0
100
AcDbSymbolTable
 70
     1
  0
VPORT
  5
A8
330
8
100
AcDbSymbolTableRecord
100
AcDbViewportTableRecord
  2
*Active
 70
     0
 10
0.0
 20
0.0
 11
1.0
 21
1.0
 12
0.0
 22
13.18642044067383
 13
0.0
 23
0.0
 14
0.5
 24
0.5
 15
0.5
 25
0.5
 16
-1.0
 26
-1.0
 36
1.0
 17
0.0
 27
0.0
 37
0.0
 40
663.7000007468166
 41
1.623226760742651
 42
50.0
 43
0.0
 44
0.0
 50
0.0
 51
0.0
 71
     0
 72
   100
 73
     1
 74
     3
 75
     0
 76
     0
 77
     0
 78
     0
281
     0
 65
     1
110
0.0
120
0.0
130
0.0
111
1.0
121
0.0
131
0.0
112
0.0
122
1.0
132
0.0
 79
     0
146
0.0
348
C9
 60
     3
 61
     5
292
     1
282
     1
141
0.0
142
0.0
 63
   250
421
  3355443
  0
ENDTAB
  0
TABLE
  2
LTYPE
  5
5
330
0
100
AcDbSymbolTable
 70
     1
  0
LTYPE
  5
14
330
5
100
AcDbSymbolTableRecord
100
AcDbLinetypeTableRecord
  2
ByBlock
 70
     0
  3

 72
    65
 73
     0
 40
0.0
  0
LTYPE
  5
15
330
5
100
AcDbSymbolTableRecord
100
AcDbLinetypeTableRecord
  2
ByLayer
 70
     0
  3

 72
    65
 73
     0
 40
0.0
  0
LTYPE
  5
16
330
5
100
AcDbSymbolTableRecord
100
AcDbLinetypeTableRecord
  2
Continuous
 70
     0
  3
Solid line
 72
    65
 73
     0
 40
0.0
  0
ENDTAB
  0
TABLE
  2
LAYER
  5
2
330
0
100
AcDbSymbolTable
 70
     4
  0
LAYER
  5
10
330
2
100
AcDbSymbolTableRecord
100
AcDbLayerTableRecord
  2
0
 70
     0
 62
     7
  6
Continuous
370
    -3
390
F
347
BB
  0
LAYER
  5
2B
330
2
100
AcDbSymbolTableRecord
100
AcDbLayerTableRecord
  2
ASHADE
 70
     4
 62
     7
  6
Continuous
370
    -3
390
2D
347
BB
  0
LAYER
  5
F9
330
2
100
AcDbSymbolTableRecord
100
AcDbLayerTableRecord
  2
Si02 RAL 9010 Reinweiss glanz
 70
     0
 62
   213
420
 12867809
  6
Continuous
370
    -3
390
F
347
BB
  0
LAYER
  5
FA
330
2
100
AcDbSymbolTableRecord
100
AcDbLayerTableRecord
  2
Si90 Lampe weiss
 70
     0
 62
   134
420
  1873329
  6
Continuous
370
    -3
390
F
347
BB
  0
ENDTAB
  0
TABLE
  2
STYLE
  5
3
330
0
100
AcDbSymbolTable
 70
     2
  0
STYLE
  5
11
330
3
100
AcDbSymbolTableRecord
100
AcDbTextStyleTableRecord
  2
Standard
 70
     0
 40
0.0
 41
1.0
 50
0.0
 71
     0
 42
0.2
  3
txt
  4

  0
STYLE
  5
2C
330
3
100
AcDbSymbolTableRecord
100
AcDbTextStyleTableRecord
  2
ASHADE
 70
     0
 40
0.2
 41
1.0
 50
0.0
 71
     0
 42
0.2
  3
simplex
  4

  0
ENDTAB
  0
TABLE
  2
VIEW
  5
6
330
0
100
AcDbSymbolTable
 70
     0
  0
ENDTAB
  0
TABLE
  2
UCS
  5
7
330
0
100
AcDbSymbolTable
 70
     0
  0
ENDTAB
  0
TABLE
  2
APPID
  5
9
330
0
100
AcDbSymbolTable
 70
     6
  0
APPID
  5
12
330
9
100
AcDbSymbolTableRecord
100
AcDbRegAppTableRecord
  2
ACAD
 70
     0
  0
APPID
  5
8F
330
9
100
AcDbSymbolTableRecord
100
AcDbRegAppTableRecord
  2
AVE_RENDER
 70
     0
  0
APPID
  5
90
330
9
100
AcDbSymbolTableRecord
100
AcDbRegAppTableRecord
  2
AVE_ENTITY_MATERIAL
 70
     0
  0
APPID
  5
9C
330
9
100
AcDbSymbolTableRecord
100
AcDbRegAppTableRecord
  2
AVE_FINISH
 70
     0
  0
APPID
  5
9D
330
9
100
AcDbSymbolTableRecord
100
AcDbRegAppTableRecord
  2
AVE_MATERIAL
 70
     0
  0
APPID
  5
9E
330
9
100
AcDbSymbolTableRecord
100
AcDbRegAppTableRecord
  2
AVE_GLOBAL
 70
     0
  0
ENDTAB
  0
TABLE
  2
DIMSTYLE
  5
A
330
0
100
AcDbSymbolTable
 70
     1
100
AcDbDimStyleTable
 71
     0
  0
DIMSTYLE
105
27
330
A
100
AcDbSymbolTableRecord
100
AcDbDimStyleTableRecord
  2
Standard
 70
     0
340
11
  0
ENDTAB
  0
TABLE
  2
BLOCK_RECORD
  5
1
330
0
100
AcDbSymbolTable
 70
     6
  0
BLOCK_RECORD
  5
1F
330
1
100
AcDbSymbolTableRecord
100
AcDbBlockTableRecord
  2
*Model_Space
340
22
 70
     0
280
     1
281
     0
  0
BLOCK_RECORD
  5
1B
330
1
100
AcDbSymbolTableRecord
100
AcDbBlockTableRecord
  2
*Paper_Space
340
1E
 70
     0
280
     1
281
     0
  0
BLOCK_RECORD
  5
23
330
1
100
AcDbSymbolTableRecord
100
AcDbBlockTableRecord
  2
*Paper_Space0
340
26
 70
     0
280
     1
281
     0
  0
BLOCK_RECORD
  5
2E
330
1
100
AcDbSymbolTableRecord
100
AcDbBlockTableRecord
  2
direct
340
0
 70
     0
280
     1
281
     0
  0
BLOCK_RECORD
  5
42
330
1
100
AcDbSymbolTableRecord
100
AcDbBlockTableRecord
  2
overhead
340
0
 70
     0
280
     1
281
     0
  0
BLOCK_RECORD
  5
5F
330
1
100
AcDbSymbolTableRecord
100
AcDbBlockTableRecord
  2
sh_spot
340
0
 70
     0
280
     1
281
     0
  0
BLOCK_RECORD
  5
91
330
1
100
AcDbSymbolTableRecord
100
AcDbBlockTableRecord
  2
AVE_RENDER
340
0
102
{BLKREFS
331
94
331
95
331
96
331
97
331
98
331
99
331
9A
331
9B
102
}
 70
     0
280
     1
281
     0
  0
BLOCK_RECORD
  5
9F
330
1
100
AcDbSymbolTableRecord
100
AcDbBlockTableRecord
  2
AVE_GLOBAL
340
0
102
{BLKREFS
331
A2
102
}
 70
     0
280
     1
281
     0
  0
ENDTAB
  0
ENDSEC
  0
SECTION
  2
BLOCKS
  0
BLOCK
  5
20
330
1F
100
AcDbEntity
  8
0
100
AcDbBlockBegin
  2
*Model_Space
 70
     0
 10
0.0
 20
0.0
 30
0.0
  3
*Model_Space
  1

  0
ENDBLK
  5
21
330
1F
100
AcDbEntity
  8
0
100
AcDbBlockEnd
  0
BLOCK
  5
1C
330
1B
100
AcDbEntity
 67
     1
  8
0
100
AcDbBlockBegin
  2
*Paper_Space
 70
     0
 10
0.0
 20
0.0
 30
0.0
  3
*Paper_Space
  1

  0
ENDBLK
  5
1D
330
1B
100
AcDbEntity
 67
     1
  8
0
100
AcDbBlockEnd
  0
BLOCK
  5
24
330
23
100
AcDbEntity
 67
     1
  8
0
100
AcDbBlockBegin
  2
*Paper_Space0
 70
     0
 10
0.0
 20
0.0
 30
0.0
  3
*Paper_Space0
  1

  0
ENDBLK
  5
25
330
23
100
AcDbEntity
 67
     1
  8
0
100
AcDbBlockEnd
  0
BLOCK
  5
40
330
2E
100
AcDbEntity
  8
0
100
AcDbBlockBegin
  2
direct
 70
     2
 10
0.0
 20
0.0
 30
0.0
  3
direct
  1

  0
ATTDEF
  5
2F
330
2E
100
AcDbEntity
  8
ASHADE
  6
Continuous
 62
     1
100
AcDbText
 10
0.0
 20
-0.1
 30
0.0
 40
0.2
  1

  7
ASHADE
 72
     1
 11
0.0
 21
-0.1
 31
0.0
100
AcDbAttributeDefinition
280
     0
  3
Light Name
  2
SNAME
 70
     0
280
     0
  0
ARC
  5
30
330
2E
100
AcDbEntity
  8
ASHADE
  6
Continuous
 62
     7
100
AcDbCircle
 10
0.0
 20
0.0
 30
0.0
 40
0.3
100
AcDbArc
 50
205.6792886194569
 51
334.3207113805431
  0
ARC
  5
31
330
2E
100
AcDbEntity
  8
ASHADE
  6
Continuous
 62
     7
100
AcDbCircle
 10
0.0
 20
0.0
 30
0.0
 40
0.3
100
AcDbArc
 50
25.67928861945685
 51
154.3207113805431
  0
LINE
  5
32
330
2E
100
AcDbEntity
  8
ASHADE
  6
Continuous
 62
     7
100
AcDbLine
 10
-0.21
 20
0.2142428528562855
 30
0.0
 11
-0.21
 21
0.5
 31
0.0
  0
LINE
  5
33
330
2E
100
AcDbEntity
  8
ASHADE
  6
Continuous
 62
     7
100
AcDbLine
 10
-0.11
 20
0.2791057147390572
 30
0.0
 11
-0.11
 21
0.5
 31
0.0
  0
LINE
  5
34
330
2E
100
AcDbEntity
  8
ASHADE
  6
Continuous
 62
     7
100
AcDbLine
 10
0.21
 20
0.2142428528562855
 30
0.0
 11
0.21
 21
0.5
 31
0.0
  0
ATTDEF
  5
35
330
2E
100
AcDbEntity
  8
ASHADE
  6
Continuous
 62
     7
100
AcDbText
 10
0.0
 20
0.25
 30
0.0
 40
0.01
  1

100
AcDbAttributeDefinition
280
     0
  3
Look-at Y
  2
LAY
 70
     1
280
     0
  0
ATTDEF
  5
36
330
2E
100
AcDbEntity
  8
ASHADE
  6
Continuous
 62
     7
100
AcDbText
 10
0.0
 20
0.22
 30
0.0
 40
0.01
  1
1
100
AcDbAttributeDefinition
280
     0
  3
Light Intensity
  2
INTENSITY
 70
     1
280
     0
  0
ATTDEF
  5
37
330
2E
100
AcDbEntity
  8
ASHADE
  6
Continuous
 62
     7
100
AcDbText
 10
0.0
 20
0.16
 30
0.0
 40
0.01
  1
-1
100
AcDbAttributeDefinition
280
     0
  3
*not used*
  2
BEAMD
 70
     1
280
     0
  0
ATTDEF
  5
38
330
2E
100
AcDbEntity
  8
ASHADE
  6
Continuous
 62
     7
100
AcDbText
 10
0.0
 20
0.175
 30
0.0
 40
0.01
  1
-1
100
AcDbAttributeDefinition
280
     0
  3
*not used*
  2
CONED
 70
     1
280
     0
  0
ATTDEF
  5
39
330
2E
100
AcDbEntity
  8
ASHADE
  6
Continuous
 62
     7
100
AcDbText
 10
0.0
 20
0.19
 30
0.0
 40
0.01
  1
0
100
AcDbAttributeDefinition
280
     0
  3
Depth Map Size
  2
CONEA
 70
     1
280
     0
  0
ATTDEF
  5
3A
330
2E
100
AcDbEntity
  8
ASHADE
  6
Continuous
 62
     7
100
AcDbText
 10
0.0
 20
0.2050000000000001
 30
0.0
 40
0.01
  1
1,1,1
100
AcDbAttributeDefinition
280
     0
  3
Light Color (RGB)
  2
COLOR
 70
     1
280
     0
  0
ATTDEF
  5
3B
330
2E
100
AcDbEntity
  8
ASHADE
  6
Continuous
 62
     7
100
AcDbText
 10
0.0
 20
0.235
 30
0.0
 40
0.01
  1

100
AcDbAttributeDefinition
280
     0
  3
Look-at Z
  2
LAZ
 70
     1
280
     0
  0
LINE
  5
3C
330
2E
100
AcDbEntity
  8
ASHADE
  6
Continuous
 62
     7
100
AcDbLine
 10
0.0
 20
0.3
 30
0.0
 11
0.0
 21
0.5
 31
0.0
  0
LINE
  5
3D
330
2E
100
AcDbEntity
  8
ASHADE
  6
Continuous
 62
     7
100
AcDbLine
 10
0.11
 20
0.2791057147390572
 30
0.0
 11
0.11
 21
0.5
 31
0.0
  0
ATTDEF
  5
3E
330
2E
100
AcDbEntity
  8
ASHADE
  6
Continuous
 62
     7
100
AcDbText
 10
0.0
 20
0.265
 30
0.0
 40
0.01
  1

100
AcDbAttributeDefinition
280
     0
  3
Look-at X
  2
LAX
 70
     1
280
     0
  0
ATTDEF
  5
3F
330
2E
100
AcDbEntity
  8
ASHADE
  6
Continuous
 62
     7
100
AcDbText
 10
0.0
 20
0.28
 30
0.0
 40
0.01
  1

100
AcDbAttributeDefinition
280
     0
  3

  2
GNAME
 70
     1
280
     0
  0
ENDBLK
  5
41
330
2E
100
AcDbEntity
  8
0
100
AcDbBlockEnd
  0
BLOCK
  5
5D
330
42
100
AcDbEntity
  8
0
100
AcDbBlockBegin
  2
overhead
 70
     2
 10
0.0
 20
0.0
 30
0.0
  3
overhead
  1

  0
ATTDEF
  5
43
330
42
100
AcDbEntity
  8
ASHADE
  6
Continuous
 62
     1
100
AcDbText
 10
0.0
 20
-0.1
 30
0.0
 40
0.2
  1

  7
ASHADE
 72
     1
 11
0.0
 21
-0.1
 31
0.0
100
AcDbAttributeDefinition
280
     0
  3
Light Name
  2
SNAME
 70
     0
280
     0
  0
ARC
  5
44
330
42
100
AcDbEntity
  8
ASHADE
  6
Continuous
 62
     7
100
AcDbCircle
 10
0.0
 20
0.0
 30
0.0
 40
0.3
100
AcDbArc
 50
205.6792886194569
 51
334.3207113805431
  0
LINE
  5
45
330
42
100
AcDbEntity
  8
ASHADE
  6
Continuous
 62
     7
100
AcDbLine
 10
-0.2041413561583015
 20
-0.2198324514393848
 30
0.0
 11
-0.2721884748777353
 21
-0.2931099352525131
 31
0.0
  0
LINE
  5
46
330
42
100
AcDbEntity
  8
ASHADE
  6
Continuous
 62
     7
100
AcDbLine
 10
-0.1096591641591904
 20
-0.2792398032442862
 30
0.0
 11
-0.1279356915190555
 21
-0.3257797704516673
 31
0.0
  0
LINE
  5
47
330
42
100
AcDbEntity
  8
ASHADE
  6
Continuous
 62
     7
100
AcDbLine
 10
0.0
 20
-0.2999999999999999
 30
0.0
 11
0.0
 21
-0.4
 31
0.0
  0
LINE
  5
48
330
42
100
AcDbEntity
  8
ASHADE
  6
Continuous
 62
     7
100
AcDbLine
 10
0.1096591641591904
 20
-0.2792398032442862
 30
0.0
 11
0.1279356915190555
 21
-0.3257797704516673
 31
0.0
  0
LINE
  5
49
330
42
100
AcDbEntity
  8
ASHADE
  6
Continuous
 62
     7
100
AcDbLine
 10
0.2041413561583015
 20
-0.2198324514393848
 30
0.0
 11
0.2721884748777353
 21
-0.2931099352525131
 31
0.0
  0
ARC
  5
4A
330
42
100
AcDbEntity
  8
ASHADE
  6
Continuous
 62
     7
100
AcDbCircle
 10
0.0
 20
0.0
 30
0.0
 40
0.3
100
AcDbArc
 50
25.67928861945685
 51
154.3207113805431
  0
LINE
  5
4B
330
42
100
AcDbEntity
  8
ASHADE
  6
Continuous
 62
     7
100
AcDbLine
 10
-0.2703701166919155
 20
0.13
 30
0.0
 11
-0.3154318028072347
 21
0.1516666666666666
 31
0.0
  0
LINE
  5
4C
330
42
100
AcDbEntity
  8
ASHADE
  6
Continuous
 62
     7
100
AcDbLine
 10
-0.2703701166919155
 20
-0.13
 30
0.0
 11
-0.3154318028072347
 21
-0.1516666666666666
 31
0.0
  0
LINE
  5
4D
330
42
100
AcDbEntity
  8
ASHADE
  6
Continuous
 62
     7
100
AcDbLine
 10
-0.2041413561583015
 20
0.2198324514393849
 30
0.0
 11
-0.2721884748777353
 21
0.2931099352525131
 31
0.0
  0
LINE
  5
4E
330
42
100
AcDbEntity
  8
ASHADE
  6
Continuous
 62
     7
100
AcDbLine
 10
-0.1096591641591904
 20
0.2792398032442862
 30
0.0
 11
-0.1279356915190555
 21
0.3257797704516674
 31
0.0
  0
LINE
  5
4F
330
42
100
AcDbEntity
  8
ASHADE
  6
Continuous
 62
     7
100
AcDbLine
 10
0.2703701166919155
 20
-0.13
 30
0.0
 11
0.3154318028072347
 21
-0.1516666666666666
 31
0.0
  0
LINE
  5
50
330
42
100
AcDbEntity
  8
ASHADE
  6
Continuous
 62
     7
100
AcDbLine
 10
0.2703701166919155
 20
0.13
 30
0.0
 11
0.3154318028072347
 21
0.1516666666666666
 31
0.0
  0
LINE
  5
51
330
42
100
AcDbEntity
  8
ASHADE
  6
Continuous
 62
     7
100
AcDbLine
 10
0.0
 20
0.3
 30
0.0
 11
0.0
 21
0.4
 31
0.0
  0
ATTDEF
  5
52
330
42
100
AcDbEntity
  8
ASHADE
  6
Continuous
 62
     7
100
AcDbText
 10
0.0
 20
0.22
 30
0.0
 40
0.01
  1
1
100
AcDbAttributeDefinition
280
     0
  3
Light Intensity
  2
INTENSITY
 70
     1
280
     0
  0
ATTDEF
  5
53
330
42
100
AcDbEntity
  8
ASHADE
  6
Continuous
 62
     7
100
AcDbText
 10
0.0
 20
0.16
 30
0.0
 40
0.01
  1
-1
100
AcDbAttributeDefinition
280
     0
  3
*not used*
  2
BEAMD
 70
     1
280
     0
  0
ATTDEF
  5
54
330
42
100
AcDbEntity
  8
ASHADE
  6
Continuous
 62
     7
100
AcDbText
 10
0.0
 20
0.175
 30
0.0
 40
0.01
  1
-1
100
AcDbAttributeDefinition
280
     0
  3
*not used*
  2
CONED
 70
     1
280
     0
  0
ATTDEF
  5
55
330
42
100
AcDbEntity
  8
ASHADE
  6
Continuous
 62
     7
100
AcDbText
 10
0.0
 20
0.19
 30
0.0
 40
0.01
  1
0
100
AcDbAttributeDefinition
280
     0
  3
Depth Map Size
  2
CONEA
 70
     1
280
     0
  0
ATTDEF
  5
56
330
42
100
AcDbEntity
  8
ASHADE
  6
Continuous
 62
     7
100
AcDbText
 10
0.0
 20
0.2050000000000001
 30
0.0
 40
0.01
  1
1,1,1
100
AcDbAttributeDefinition
280
     0
  3
Light Color (RGB)
  2
COLOR
 70
     1
280
     0
  0
ATTDEF
  5
57
330
42
100
AcDbEntity
  8
ASHADE
  6
Continuous
 62
     7
100
AcDbText
 10
0.0
 20
0.235
 30
0.0
 40
0.01
  1

100
AcDbAttributeDefinition
280
     0
  3
Look-at Z
  2
LAZ
 70
     1
280
     0
  0
ATTDEF
  5
58
330
42
100
AcDbEntity
  8
ASHADE
  6
Continuous
 62
     7
100
AcDbText
 10
0.0
 20
0.25
 30
0.0
 40
0.01
  1

100
AcDbAttributeDefinition
280
     0
  3
Look-at Y
  2
LAY
 70
     1
280
     0
  0
ATTDEF
  5
59
330
42
100
AcDbEntity
  8
ASHADE
  6
Continuous
 62
     7
100
AcDbText
 10
0.0
 20
0.265
 30
0.0
 40
0.01
  1

100
AcDbAttributeDefinition
280
     0
  3
Look-at X
  2
LAX
 70
     1
280
     0
  0
ATTDEF
  5
5A
330
42
100
AcDbEntity
  8
ASHADE
  6
Continuous
 62
     7
100
AcDbText
 10
0.0
 20
0.28
 30
0.0
 40
0.01
  1

100
AcDbAttributeDefinition
280
     0
  3

  2
GNAME
 70
     1
280
     0
  0
LINE
  5
5B
330
42
100
AcDbEntity
  8
ASHADE
  6
Continuous
 62
     7
100
AcDbLine
 10
0.1096591641591904
 20
0.2792398032442862
 30
0.0
 11
0.1279356915190555
 21
0.3257797704516674
 31
0.0
  0
LINE
  5
5C
330
42
100
AcDbEntity
  8
ASHADE
  6
Continuous
 62
     7
100
AcDbLine
 10
0.2041413561583015
 20
0.2198324514393849
 30
0.0
 11
0.2721884748777353
 21
0.2931099352525131
 31
0.0
  0
ENDBLK
  5
5E
330
42
100
AcDbEntity
  8
0
100
AcDbBlockEnd
  0
BLOCK
  5
85
330
5F
100
AcDbEntity
  8
0
100
AcDbBlockBegin
  2
sh_spot
 70
     2
 10
0.0
 20
0.0
 30
0.0
  3
sh_spot
  1

  0
LINE
  5
60
330
5F
100
AcDbEntity
  8
ASHADE
  6
Continuous
 62
     7
100
AcDbLine
 10
0.25
 20
0.26
 30
0.0
 11
-0.25
 21
0.26
 31
0.0
  0
LINE
  5
61
330
5F
100
AcDbEntity
  8
ASHADE
  6
Continuous
 62
     7
100
AcDbLine
 10
-0.25
 20
-0.3399999999999999
 30
0.0
 11
0.25
 21
-0.3399999999999999
 31
0.0
  0
ATTDEF
  5
62
330
5F
100
AcDbEntity
  8
ASHADE
  6
Continuous
 62
     1
100
AcDbText
 10
0.0
 20
-0.1
 30
0.0
 40
0.2
  1

  7
ASHADE
 72
     1
 11
0.0
 21
-0.1
 31
0.0
100
AcDbAttributeDefinition
280
     0
  3
Light Name
  2
SNAME
 70
     0
280
     0
  0
LINE
  5
63
330
5F
100
AcDbEntity
  8
ASHADE
  6
Continuous
 62
     7
100
AcDbLine
 10
-0.25
 20
-0.13
 30
0.0
 11
-0.25
 21
-0.3399999999999999
 31
0.0
  0
LINE
  5
64
330
5F
100
AcDbEntity
  8
ASHADE
  6
Continuous
 62
     7
100
AcDbLine
 10
-0.25
 20
-0.18
 30
0.0
 11
-0.29
 21
-0.18
 31
0.0
  0
LINE
  5
65
330
5F
100
AcDbEntity
  8
ASHADE
  6
Continuous
 62
     7
100
AcDbLine
 10
-0.29
 20
-0.22
 30
0.0
 11
-0.25
 21
-0.22
 31
0.0
  0
LINE
  5
66
330
5F
100
AcDbEntity
  8
ASHADE
  6
Continuous
 62
     7
100
AcDbLine
 10
-0.29
 20
-0.18
 30
0.0
 11
-0.29
 21
-0.22
 31
0.0
  0
LINE
  5
67
330
5F
100
AcDbEntity
  8
ASHADE
  6
Continuous
 62
     7
100
AcDbLine
 10
-0.1045454545454545
 20
0.26
 30
0.0
 11
-0.15
 21
0.46
 31
0.0
  0
LINE
  5
68
330
5F
100
AcDbEntity
  8
ASHADE
  6
Continuous
 62
     7
100
AcDbLine
 10
-0.21
 20
0.26
 30
0.0
 11
-0.301304347826087
 21
0.46
 31
0.0
  0
LINE
  5
69
330
5F
100
AcDbEntity
  8
ASHADE
  6
Continuous
 62
     7
100
AcDbLine
 10
-0.25
 20
0.26
 30
0.0
 11
-0.25
 21
0.13
 31
0.0
  0
LINE
  5
6A
330
5F
100
AcDbEntity
  8
ASHADE
  6
Continuous
 62
     7
100
AcDbLine
 10
-0.25
 20
0.22
 30
0.0
 11
-0.29
 21
0.22
 31
0.0
  0
LINE
  5
6B
330
5F
100
AcDbEntity
  8
ASHADE
  6
Continuous
 62
     7
100
AcDbLine
 10
-0.29
 20
0.1799999999999999
 30
0.0
 11
-0.25
 21
0.1799999999999999
 31
0.0
  0
LINE
  5
6C
330
5F
100
AcDbEntity
  8
ASHADE
  6
Continuous
 62
     7
100
AcDbLine
 10
-0.29
 20
0.22
 30
0.0
 11
-0.29
 21
0.1799999999999999
 31
0.0
  0
ATTDEF
  5
6D
330
5F
100
AcDbEntity
  8
ASHADE
  6
Continuous
 62
     7
100
AcDbText
 10
0.0
 20
-0.24
 30
0.0
 40
0.01
  1
0
100
AcDbAttributeDefinition
280
     0
  3
Depth Map Size
  2
ZSIZE
 70
     1
280
     0
  0
ATTDEF
  5
6E
330
5F
100
AcDbEntity
  8
ASHADE
  6
Continuous
 62
     7
100
AcDbText
 10
0.0
 20
-0.3300000000000001
 30
0.0
 40
0.01
  1
0,0,0
100
AcDbAttributeDefinition
280
     0
  3
Look-from XYZ
  2
LFXYZ
 70
     1
280
     0
  0
ATTDEF
  5
6F
330
5F
100
AcDbEntity
  8
ASHADE
  6
Continuous
 62
     7
100
AcDbText
 10
0.0
 20
-0.315
 30
0.0
 40
0.01
  1
0.0
100
AcDbAttributeDefinition
280
     0
  3
Beam Distribution
  2
BEAMDI
 70
     1
280
     0
  0
ATTDEF
  5
70
330
5F
100
AcDbEntity
  8
ASHADE
  6
Continuous
 62
     7
100
AcDbText
 10
0.0
 20
-0.3
 30
0.0
 40
0.01
  1
0.0
100
AcDbAttributeDefinition
280
     0
  3
Cone Delta
  2
CONEDE
 70
     1
280
     0
  0
ATTDEF
  5
71
330
5F
100
AcDbEntity
  8
ASHADE
  6
Continuous
 62
     7
100
AcDbText
 10
0.0
 20
-0.2850000000000001
 30
0.0
 40
0.01
  1
10.0
100
AcDbAttributeDefinition
280
     0
  3
Cone Angle
  2
CONEAN
 70
     1
280
     0
  0
ATTDEF
  5
72
330
5F
100
AcDbEntity
  8
ASHADE
  6
Continuous
 62
     7
100
AcDbText
 10
0.0
 20
-0.27
 30
0.0
 40
0.01
  1
-1
100
AcDbAttributeDefinition
280
     0
  3
*not used*
  2
BIASMAX
 70
     1
280
     0
  0
ATTDEF
  5
73
330
5F
100
AcDbEntity
  8
ASHADE
  6
Continuous
 62
     7
100
AcDbText
 10
0.0
 20
-0.255
 30
0.0
 40
0.01
  1
-1
100
AcDbAttributeDefinition
280
     0
  3
*not used*
  2
BIASMIN
 70
     1
280
     0
  0
ATTDEF
  5
74
330
5F
100
AcDbEntity
  8
ASHADE
  6
Continuous
 62
     7
100
AcDbText
 10
0.0
 20
-0.225
 30
0.0
 40
0.01
  1
1,1,1
100
AcDbAttributeDefinition
280
     0
  3
Light Color (RGB)
  2
COLOR
 70
     1
280
     0
  0
ATTDEF
  5
75
330
5F
100
AcDbEntity
  8
ASHADE
  6
Continuous
 62
     7
100
AcDbText
 10
0.0
 20
-0.21
 30
0.0
 40
0.01
  1
1
100
AcDbAttributeDefinition
280
     0
  3
Light Intensity
  2
INTENSITY
 70
     1
280
     0
  0
ATTDEF
  5
76
330
5F
100
AcDbEntity
  8
ASHADE
  6
Continuous
 62
     7
100
AcDbText
 10
0.0
 20
-0.15
 30
0.0
 40
0.01
  1

100
AcDbAttributeDefinition
280
     0
  3

  2
GNAME
 70
     1
280
     0
  0
ATTDEF
  5
77
330
5F
100
AcDbEntity
  8
ASHADE
  6
Continuous
 62
     7
100
AcDbText
 10
0.0
 20
-0.195
 30
0.0
 40
0.01
  1

100
AcDbAttributeDefinition
280
     0
  3
Look-at Z
  2
LAZ
 70
     1
280
     0
  0
ATTDEF
  5
78
330
5F
100
AcDbEntity
  8
ASHADE
  6
Continuous
 62
     7
100
AcDbText
 10
0.0
 20
-0.18
 30
0.0
 40
0.01
  1

100
AcDbAttributeDefinition
280
     0
  3
Look-at Y
  2
LAY
 70
     1
280
     0
  0
ATTDEF
  5
79
330
5F
100
AcDbEntity
  8
ASHADE
  6
Continuous
 62
     7
100
AcDbText
 10
0.0
 20
-0.165
 30
0.0
 40
0.01
  1

100
AcDbAttributeDefinition
280
     0
  3
Look-at X
  2
LAX
 70
     1
280
     0
  0
LINE
  5
7A
330
5F
100
AcDbEntity
  8
ASHADE
  6
Continuous
 62
     7
100
AcDbLine
 10
0.25
 20
-0.3399999999999999
 30
0.0
 11
0.25
 21
-0.13
 31
0.0
  0
LINE
  5
7B
330
5F
100
AcDbEntity
  8
ASHADE
  6
Continuous
 62
     7
100
AcDbLine
 10
0.25
 20
-0.18
 30
0.0
 11
0.29
 21
-0.18
 31
0.0
  0
LINE
  5
7C
330
5F
100
AcDbEntity
  8
ASHADE
  6
Continuous
 62
     7
100
AcDbLine
 10
0.29
 20
-0.22
 30
0.0
 11
0.25
 21
-0.22
 31
0.0
  0
LINE
  5
7D
330
5F
100
AcDbEntity
  8
ASHADE
  6
Continuous
 62
     7
100
AcDbLine
 10
0.29
 20
-0.18
 30
0.0
 11
0.29
 21
-0.22
 31
0.0
  0
LINE
  5
7E
330
5F
100
AcDbEntity
  8
ASHADE
  6
Continuous
 62
     7
100
AcDbLine
 10
0.21
 20
0.26
 30
0.0
 11
0.301304347826087
 21
0.46
 31
0.0
  0
LINE
  5
7F
330
5F
100
AcDbEntity
  8
ASHADE
  6
Continuous
 62
     7
100
AcDbLine
 10
0.1045454545454545
 20
0.26
 30
0.0
 11
0.15
 21
0.46
 31
0.0
  0
LINE
  5
80
330
5F
100
AcDbEntity
  8
ASHADE
  6
Continuous
 62
     7
100
AcDbLine
 10
0.0
 20
0.26
 30
0.0
 11
0.0
 21
0.46
 31
0.0
  0
LINE
  5
81
330
5F
100
AcDbEntity
  8
ASHADE
  6
Continuous
 62
     7
100
AcDbLine
 10
0.25
 20
0.13
 30
0.0
 11
0.25
 21
0.26
 31
0.0
  0
LINE
  5
82
330
5F
100
AcDbEntity
  8
ASHADE
  6
Continuous
 62
     7
100
AcDbLine
 10
0.25
 20
0.22
 30
0.0
 11
0.29
 21
0.22
 31
0.0
  0
LINE
  5
83
330
5F
100
AcDbEntity
  8
ASHADE
  6
Continuous
 62
     7
100
AcDbLine
 10
0.29
 20
0.1799999999999999
 30
0.0
 11
0.25
 21
0.1799999999999999
 31
0.0
  0
LINE
  5
84
330
5F
100
AcDbEntity
  8
ASHADE
  6
Continuous
 62
     7
100
AcDbLine
 10
0.29
 20
0.22
 30
0.0
 11
0.29
 21
0.1799999999999999
 31
0.0
  0
ENDBLK
  5
86
330
5F
100
AcDbEntity
  8
0
100
AcDbBlockEnd
  0
BLOCK
  5
92
330
91
100
AcDbEntity
  8
ASHADE
100
AcDbBlockBegin
  2
AVE_RENDER
 70
     0
 10
0.0
 20
0.0
 30
0.0
  3
AVE_RENDER
  1
AVE_RENDER
  0
ENDBLK
  5
93
330
91
100
AcDbEntity
  8
0
100
AcDbBlockEnd
  0
BLOCK
  5
A0
330
9F
100
AcDbEntity
  8
ASHADE
100
AcDbBlockBegin
  2
AVE_GLOBAL
 70
     0
 10
0.0
 20
0.0
 30
0.0
  3
AVE_GLOBAL
  1
AVE_GLOBAL
  0
ENDBLK
  5
A1
330
9F
100
AcDbEntity
  8
0
100
AcDbBlockEnd
  0
ENDSEC
  0
SECTION
  2
ENTITIES
  0
INSERT
  5
94
330
1F
100
AcDbEntity
  8
ASHADE
 62
     1
100
AcDbBlockReference
  2
AVE_RENDER
 10
0.0
 20
0.0
 30
0.0
1001
AVE_RENDER
1002
{
1070
     7
1000
Pref
1070
    30
1070
    20
1070
     1
1070
     0
1000

1070
    10
1070
     1
1070
    10
1040
1.0
1070
     1
1040
0.3
1040
0.7
1040
0.0
1040
10.0
1010
-1.0
1020
-1.0
1030
-1.0
1040
0.3
1070
    49
1070
     0
1070
     0
1010
1.0
1020
1.0
1030
1.0
1040
45.0
1070
     1
1070
     0
1000
WCS
1040
0.0
1070
     0
1040
10.0
1002
}
  0
INSERT
  5
95
330
1F
100
AcDbEntity
  8
ASHADE
 62
     3
100
AcDbBlockReference
  2
AVE_RENDER
 10
0.0
 20
0.0
 30
0.0
1001
AVE_RENDER
1002
{
1070
     0
1000
Full Opt
1070
     0
1070
     1
1070
     1
1070
     1
1070
     0
1070
     0
1070
     0
1070
     1
1070
     1
1040
0.0001
1040
0.0001
1002
}
  0
INSERT
  5
96
330
1F
100
AcDbEntity
  8
ASHADE
 62
     4
100
AcDbBlockReference
  2
AVE_RENDER
 10
0.0
 20
0.0
 30
0.0
1001
AVE_RENDER
1002
{
1070
     0
1000
Quick Opt
1070
     0
1070
     1
1070
     1
1070
     1
1070
     0
1070
     0
1070
     1
1002
}
  0
INSERT
  5
97
330
1F
100
AcDbEntity
  8
ASHADE
 62
     5
100
AcDbBlockReference
  2
AVE_RENDER
 10
0.0
 20
0.0
 30
0.0
1001
AVE_RENDER
1002
{
1070
     1
1000
Scanl Opt
1070
     2
1070
     0
1070
     2
1040
2.0
1040
4.0
1070
     0
1070
     1
1070
     0
1040
0.03
1002
}
  0
INSERT
  5
98
330
1F
100
AcDbEntity
  8
ASHADE
 62
     6
100
AcDbBlockReference
  2
AVE_RENDER
 10
0.0
 20
0.0
 30
0.0
1001
AVE_RENDER
1002
{
1070
     2
1000
Raytr Opt
1070
     2
1070
     0
1070
     2
1040
2.0
1040
4.0
1070
     0
1070
     1
1070
     1
1040
0.03
1070
     3
1040
0.03
1002
}
  0
INSERT
  5
99
330
1F
100
AcDbEntity
  8
ASHADE
 62
     7
100
AcDbBlockReference
  2
AVE_RENDER
 10
0.0
 20
0.0
 30
0.0
1001
AVE_RENDER
1002
{
1070
     0
1000
RFile Opt
1070
     1
1070
   640
1070
   480
1070
 10000
1070
     1
1070
     8
1070
     8
1070
     0
1070
     0
1070
     0
1070
     0
1070
     0
1070
     0
1070
     0
1002
}
  0
INSERT
  5
9A
330
1F
100
AcDbEntity
  8
ASHADE
 62
     8
100
AcDbBlockReference
  2
AVE_RENDER
 10
0.0
 20
0.0
 30
0.0
1001
AVE_RENDER
1002
{
1070
     0
1000
Fog Opt
1070
     0
1070
     0
1040
0.0
1040
1.0
1040
0.0
1040
1.0
1010
0.5
1020
0.5
1030
0.5
1002
}
  0
INSERT
  5
9B
330
1F
100
AcDbEntity
  8
ASHADE
 62
     9
100
AcDbBlockReference
  2
AVE_RENDER
 10
0.0
 20
0.0
 30
0.0
1001
AVE_RENDER
1002
{
1070
     0
1000
BG Opt
1070
     0
1070
     1
1010
0.0
1020
0.0
1030
0.0
1010
1.0
1020
0.0
1030
0.0
1010
0.0
1020
1.0
1030
0.0
1010
0.0
1020
0.0
1030
1.0
1040
0.5
1040
0.33
1040
0.0
1000

1070
     1
1000

1070
     1
1070
     1
1040
1.0
1040
1.0
1040
0.0
1040
0.0
1070
     0
1002
}
  0
INSERT
  5
A2
330
1F
100
AcDbEntity
  8
ASHADE
 62
     1
100
AcDbBlockReference
  2
AVE_GLOBAL
 10
0.0
 20
0.0
 30
0.0
1001
AVE_MATERIAL
1002
{
1000
*GLOBAL*
1000
2
1000
Global finish.
1002
{
1002
}
1002
{
1070
    63
1002
{
1002
{
1010
-1.0
1020
-1.0
1030
-1.0
1002
}
1040
0.1000000014901161
1000

1040
0.0
1002
{
1002
}
1040
0.0
1002
{
1002
}
1040
0.0
1002
}
1002
{
1002
{
1010
-1.0
1020
-1.0
1030
-1.0
1002
}
1040
0.6999999880790711
1000

1040
0.0
1002
{
1002
}
1040
0.0
1002
{
1002
}
1040
0.0
1002
}
1002
{
1002
{
1010
-1.0
1020
-1.0
1030
-1.0
1002
}
1040
0.2000000029802322
1000

1040
0.0
1002
{
1002
}
1040
0.0
1002
{
1002
}
1040
0.0
1002
}
1002
{
1070
     0
1002
{
1070
     1
1002
{
1040
1.0
1040
1.0
1000

1040
0.0
1002
{
1002
}
1040
0.0
1002
{
1002
}
1040
0.0
1002
}
1002
}
1040
1.0
1040
0.0
1040
0.0
1002
}
1002
{
1040
1.0
1040
1.0
1000

1040
0.0
1002
{
1002
}
1040
0.0
1002
{
1002
}
1040
0.0
1002
}
1002
{
1040
0.5
1040
1.0
1000

1040
0.0
1002
{
1002
}
1040
0.0
1002
{
1002
}
1040
0.0
1002
}
1002
{
1070
     0
1040
0.0
1002
{
1002
}
1040
1.0
1002
{
1002
}
1040
0.0
1002
}
1002
{
1040
0.0
1002
{
1002
{
1010
0.0
1020
0.0
1030
0.0
1002
}
1040
1.0
1000

1040
0.0
1002
{
1002
}
1040
0.0
1002
{
1002
}
1040
0.0
1002
}
1002
}
1002
{
1002
{
1070
     1
1002
{
1040
0.0
1040
1.0
1000

1040
0.0
1002
{
1002
}
1040
0.0
1002
{
1002
}
1040
0.0
1002
}
1002
}
1040
0.0
1002
{
1002
}
1010
1.0
1020
0.0
1030
0.0
1010
0.0
1020
1.0
1030
0.0
1010
0.0
1020
0.0
1030
1.0
1070
     0
1002
}
1002
{
1002
{
1040
1.0
1040
1.0
1002
{
1070
     1
1002
{
1040
1.0
1040
1.0
1000

1040
0.0
1002
{
1002
}
1040
0.0
1002
{
1002
}
1040
0.0
1002
}
1002
}
1002
}
1070
     0
1040
0.0
1002
{
1002
}
1002
}
1002
{
1002
}
1002
}
1002
{
1071
        3
1070
     3
1070
     0
1002
{
1070
     2
1070
     0
1070
     0
1040
0.0
1002
}
1070
     0
1070
     2
1002
{
1002
}
1002
}
1002
{
1040
8030.0
1040
190.3000030517578
1040
0.3050000071525574
1040
228.0
1040
545.0
1040
14.0
1040
17.39999961853027
1040
0.4560000002384186
1002
}
1002
}
  0
MESH
  5
FB
102
{ACAD_REACTORS
330
100
330
FF
102
}
330
1F
100
AcDbEntity
  8
Si02 RAL 9010 Reinweiss glanz
 62
     7
420
 15724004
160
             28088
310
B86D00000C0300000C00000013000000020000003C0000000600000002000000000000402FEC5340000000403E996640000000000000B0BE000000203E99664000000060E8296640000000000000B0BE0C000000130000000A0000003C0000000600000002000000000000402FEC5340000000403E996640000000000000B0
310
BE00000020E8296640000000603E996640000000000000B0BE0C00000013000000120000003C000000060000000200000000000020E8296640000000603E996640000000000000B0BE000000203E99664000000060E8296640000000000000B0BE0C000000130000001A0000003C0000000600000002000000000000603E99
310
664000000020E82966C0000000000000B0BE000000802FEC5340000000403E9966C0000000000000B0BE0C00000013000000220000003C0000000600000002000000000000603E99664000000020E82966C0000000000000B0BE00000060E8296640000000203E9966C0000000000000B0BE0C000000130000002A0000003C
310
000000060000000200000000000060E8296640000000203E9966C0000000000000B0BE000000802FEC5340000000403E9966C0000000000000B0BE0C00000013000000320000003C0000000600000002000000000000203E99664000000060E8296640000000000000B0BE000000802FEC5340000000403E9966C000000000
310
0000B0BE0C000000130000003A0000003C0000000600000002000000000000603E99664000000020E82966C0000000000000B0BE000000203E99664000000060E8296640000000000000B0BE0C00000013000000420000003C0000000600000002000000000000203E99664000000060E8296640000000000000B0BE000000
310
A0830D534000000040E82966C0000000000000B0BE0C000000130000004A0000003C0000000600000002000000000000802FEC5340000000403E9966C0000000000000B0BE000000A0830D534000000040E82966C0000000000000B0BE0C00000013000000520000003C0000000600000002000000000000203E9966400000
310
0060E8296640000000000000B0BE00000060830D534000000040E8296640000000000000B0BE0C000000130000005A0000003C0000000600000002000000000000A0830D534000000040E82966C0000000000000B0BE00000060830D534000000040E8296640000000000000B0BE0C00000013000000620000003C00000006
310
00000002000000000000402FEC5340000000403E996640000000000000B0BE00000060830D534000000040E8296640000000000000B0BE0C000000130000006A0000003C000000060000000200000000000060E82966C0000000203E996640000000000000B0BE000000A0830D53C000000040E8296640000000000000B0BE
310
0C00000013000000720000003C000000060000000200000000000060E82966C0000000203E996640000000000000B0BE000000802FEC53C0000000403E996640000000000000B0BE0C000000130000007A0000003C0000000600000002000000000000802FEC53C0000000403E996640000000000000B0BE000000A0830D53
310
C000000040E8296640000000000000B0BE0C00000013000000820000003C000000060000000200000000000060830D53C000000040E82966C0000000000000B0BE00000020E82966C0000000603E9966C0000000000000B0BE0C000000130000008A0000003C000000060000000200000000000060830D53C000000040E829
310
66C0000000000000B0BE000000402FEC53C0000000403E9966C0000000000000B0BE0C00000013000000920000003C0000000600000002000000000000402FEC53C0000000403E9966C0000000000000B0BE00000020E82966C0000000603E9966C0000000000000B0BE0C000000130000009A0000003C0000000600000002
310
000000000000A0830D53C000000040E8296640000000000000B0BE00000020E82966C0000000603E9966C0000000000000B0BE0C00000013000000A20000003C000000060000000200000000000060830D53C000000040E82966C0000000000000B0BE000000A0830D53C000000040E8296640000000000000B0BE0C000000
310
13000000AA0000003C0000000600000002000000000000A0830D53C000000040E8296640000000000000B0BE000000203E9966C000000060E82966C0000000000000B0BE0C00000013000000B20000003C000000060000000200000000000020E82966C0000000603E9966C0000000000000B0BE000000203E9966C0000000
310
60E82966C0000000000000B0BE0C00000013000000BA0000003C0000000600000002000000000000A0830D53C000000040E8296640000000000000B0BE000000603E9966C000000020E8296640000000000000B0BE0C00000013000000C20000003C0000000600000002000000000000203E9966C000000060E82966C00000
310
00000000B0BE000000603E9966C000000020E8296640000000000000B0BE0C00000013000000CA0000003C000000060000000200000000000060E82966C0000000203E996640000000000000B0BE000000603E9966C000000020E8296640000000000000B0BE0C00000013000000D20000003C000000060000000200000000
310
000060A16748C0000000403E996640000000000000B0BE000000C0F8244A4000000040E8296640000000000000B0BE0C00000013000000DA0000003C000000060000000200000000000060A16748C0000000403E996640000000000000B0BE000000E0A0674840000000403E996640000000000000B0BE0C00000013000000
310
E20000003C0000000600000002000000000000E0A0674840000000403E996640000000000000B0BE000000C0F8244A4000000040E8296640000000000000B0BE0C00000013000000EA0000003C000000060000000200000000000060A1674840000000403E9966C0000000000000B0BE000000C0F8244AC000000040E82966
310
C0000000000000B0BE0C00000013000000F20000003C000000060000000200000000000060A1674840000000403E9966C0000000000000B0BE000000E0A06748C0000000403E9966C0000000000000B0BE0C00000013000000FA0000003C0000000600000002000000000000E0A06748C0000000403E9966C0000000000000
310
B0BE000000C0F8244AC000000040E82966C0000000000000B0BE0C00000013000000020100003C000000060000000200000000000060A1674840000000403E9966C0000000000000B0BE00000040F9244AC000000040E8296640000000000000B0BE0C000000130000000A0100003C0000000600000002000000000000C0F8
310
244AC000000040E82966C0000000000000B0BE00000040F9244AC000000040E8296640000000000000B0BE0C00000013000000120100003C000000060000000200000000000040F9244A4000000040E82966C0000000000000B0BE00000040F9244AC000000040E8296640000000000000B0BE0C000000130000001A010000
310
3C000000060000000200000000000060A1674840000000403E9966C0000000000000B0BE00000040F9244A4000000040E82966C0000000000000B0BE0C00000013000000220100003C0000000600000002000000000000C0F8244A4000000040E8296640000000000000B0BE00000040F9244AC000000040E8296640000000
310
000000B0BE0C000000130000002A0100003C000000060000000200000000000040F9244A4000000040E82966C0000000000000B0BE000000C0F8244A4000000040E8296640000000000000B0BE0C00000013000000320100003C000000060000000200000000000060A16748C0000000403E996640000000000000B0BE0000
310
0040F9244AC000000040E8296640000000000000B0BE0C000000130000003A0100003C00000006000000020000000000000000F871400000000000F8714000000000008042400000000000F871C00000000000F87140000000000000B0BE0C00000013000000420100003C00000006000000020000000000000000F8714000
310
00000000F8714000000000008042400000000000F871400000000000F87140000000000000B0BE0C000000130000004A0100003C00000006000000020000000000000000F871400000000000F87140000000000000B0BE0000000000F871C00000000000F87140000000000000B0BE0C00000013000000520100003C000000
310
06000000020000000000000000F871C00000000000F87140000000000000B0BE0000000000F871C00000000000F8714000000000008042400C000000130000005A0100003C00000006000000020000000000000000F871400000000000F8714000000000008042400000000000F871C00000000000F8714000000000008042
310
400C00000013000000620100003C00000006000000020000000000000000F871400000000000F871C000000000008042400000000000F871400000000000F87140000000000000B0BE0C000000130000006A0100003C00000006000000020000000000000000F871400000000000F871C000000000008042400000000000F8
310
71400000000000F871C0000000000000B0BE0C00000013000000720100003C00000006000000020000000000000000F871400000000000F871C0000000000000B0BE0000000000F871400000000000F87140000000000000B0BE0C000000130000007A0100003C00000006000000020000000000000000F871400000000000
310
F87140000000000000B0BE0000000000F871400000000000F8714000000000008042400C00000013000000820100003C00000006000000020000000000000000F871400000000000F871C000000000008042400000000000F871400000000000F8714000000000008042400C000000130000008A0100003C00000006000000
310
020000000000000000F871C00000000000F871C000000000008042400000000000F871400000000000F871C0000000000000B0BE0C00000013000000920100003C00000006000000020000000000000000F871C00000000000F871C000000000008042400000000000F871C00000000000F871C0000000000000B0BE0C0000
310
00130000009A0100003C00000006000000020000000000000000F871C00000000000F871C0000000000000B0BE0000000000F871400000000000F871C0000000000000B0BE0C00000013000000A20100003C00000006000000020000000000000000F871400000000000F871C0000000000000B0BE0000000000F871400000
310
000000F871C000000000008042400C00000013000000AA0100003C00000006000000020000000000000000F871C00000000000F871C000000000008042400000000000F871400000000000F871C000000000008042400C00000013000000B20100003C00000006000000020000000000000000F871C00000000000F8714000
310
000000008042400000000000F871C00000000000F871C0000000000000B0BE0C00000013000000BA0100003C00000006000000020000000000000000F871C00000000000F8714000000000008042400000000000F871C00000000000F87140000000000000B0BE0C00000013000000C20100003C0000000600000002000000
310
0000000000F871C00000000000F87140000000000000B0BE0000000000F871C00000000000F871C0000000000000B0BE0C00000013000000CA0100003C00000006000000020000000000000000F871C00000000000F871C0000000000000B0BE0000000000F871C00000000000F871C000000000008042400C000000130000
310
00D20100003C00000006000000020000000000000000F871C00000000000F8714000000000008042400000000000F871C00000000000F871C000000000008042400C00000013000000DA0100003C00000006000000020000000000000000F871400000000000F8714000000000008042400000000000F871C00000000000F8
310
71C000000000008042400C00000013000000E20100003C00000006000000020000000000000000F871400000000000F8714000000000008042400000000000F871C00000000000F8714000000000008042400C00000013000000EA0100003C00000006000000020000000000000000F871C00000000000F871400000000000
310
8042400000000000F871C00000000000F871C000000000008042400C00000013000000F20100003C00000006000000020000000000000000F871C00000000000F871C000000000008042400000000000F871400000000000F871C000000000008042400C00000013000000FA0100003C000000060000000200000000000000
310
00F871400000000000F8714000000000008042400000000000F871400000000000F871C000000000008042400C00000013000000020200003C0000000600000002000000000000203E99664000000060E8296640000000000000B0BE0000006010976640000000806606674000000000CDCC12C00C000000130000000A0200
310
003C0000000600000002000000000000203E99664000000060E8296640000000000000B0BE00000020E8296640000000603E996640000000000000B0BE0C00000013000000120200003C000000060000000200000000000020E8296640000000603E996640000000000000B0BE000000601097664000000080660667400000
310
0000CDCC12C00C000000130000001A0200003C00000006000000020000000000006010976640000000806606674000000000CDCC12C00000004066066740000000A01097664000000000CDCC12C00C00000013000000220200003C0000000600000002000000000000203E99664000000060E8296640000000000000B0BE00
310
00004066066740000000A01097664000000000CDCC12C00C000000130000002A0200003C0000000600000002000000000000603E99664000000020E82966C0000000000000B0BE0000004066066740000000A01097664000000000CDCC12C00C00000013000000320200003C0000000600000002000000000000603E996640
310
00000020E82966C0000000000000B0BE000000203E99664000000060E8296640000000000000B0BE0C000000130000003A0200003C0000000600000002000000000000203E99664000000060E8296640000000000000B0BE0000004066066740000000A01097664000000000CDCC12C00C00000013000000420200003C0000
310
0006000000020000000000004066066740000000A01097664000000000CDCC12C0000000806606674000000060109766C000000000CDCC12C00C000000130000004A0200003C0000000600000002000000000000603E99664000000020E82966C0000000000000B0BE000000806606674000000060109766C000000000CDCC
310
12C00C00000013000000520200003C000000060000000200000000000060830D534000000040E8296640000000000000B0BE00000000DF115340000000606606674000000000CDCC12C00C000000130000005A0200003C000000060000000200000000000060830D534000000040E8296640000000000000B0BE0000002033
310
335240000000801097664000000000CDCC12C00C00000013000000620200003C00000006000000020000000000002033335240000000801097664000000000CDCC12C000000000DF115340000000606606674000000000CDCC12C00C000000130000006A0200003C000000060000000200000000000000DF11534000000060
310
6606674000000000CDCC12C0000000402FEC5340000000403E996640000000000000B0BE0C00000013000000720200003C000000060000000200000000000060830D534000000040E8296640000000000000B0BE000000402FEC5340000000403E996640000000000000B0BE0C000000130000007A0200003C000000060000
310
0002000000000000402FEC5340000000403E996640000000000000B0BE0000006010976640000000806606674000000000CDCC12C00C00000013000000820200003C0000000600000002000000000000402FEC5340000000403E996640000000000000B0BE00000000DF115340000000606606674000000000CDCC12C00C00
310
0000130000008A0200003C000000060000000200000000000000DF115340000000606606674000000000CDCC12C00000006010976640000000806606674000000000CDCC12C00C00000013000000920200003C00000006000000020000000000006010976640000000806606674000000000CDCC12C000000020E829664000
310
0000603E996640000000000000B0BE0C000000130000009A0200003C0000000600000002000000000000402FEC5340000000403E996640000000000000B0BE00000020E8296640000000603E996640000000000000B0BE0C00000013000000A20200003C0000000600000002000000000000E0A0674840000000403E996640
310
000000000000B0BE0000006099D94B40000000801097664000000000CDCC12C00C00000013000000AA0200003C0000000600000002000000000000E0A0674840000000403E996640000000000000B0BE00000080411C4A40000000606606674000000000CDCC12C00C00000013000000B20200003C00000006000000020000
310
0000000080411C4A40000000606606674000000000CDCC12C00000006099D94B40000000801097664000000000CDCC12C00C00000013000000BA0200003C00000006000000020000000000006099D94B40000000801097664000000000CDCC12C0000000C0F8244A4000000040E8296640000000000000B0BE0C0000001300
310
0000C20200003C0000000600000002000000000000E0A0674840000000403E996640000000000000B0BE000000C0F8244A4000000040E8296640000000000000B0BE0C00000013000000CA0200003C000000060000000200000000000040F9244A4000000040E82966C0000000000000B0BE0000006099D94B400000008010
310
97664000000000CDCC12C00C00000013000000D20200003C000000060000000200000000000040F9244A4000000040E82966C0000000000000B0BE000000C0F8244A4000000040E8296640000000000000B0BE0C00000013000000DA0200003C0000000600000002000000000000C0F8244A4000000040E829664000000000
310
0000B0BE0000006099D94B40000000801097664000000000CDCC12C00C00000013000000E20200003C00000006000000020000000000006099D94B40000000801097664000000000CDCC12C0000000E099D94B4000000080109766C000000000CDCC12C00C00000013000000EA0200003C0000000600000002000000000000
310
40F9244A4000000040E82966C0000000000000B0BE000000E099D94B4000000080109766C000000000CDCC12C00C00000013000000F20200003C000000060000000200000000000060A16748C0000000403E996640000000000000B0BE000000E099D94BC0000000801097664000000000CDCC12C00C00000013000000FA02
310
00003C000000060000000200000000000060A16748C0000000403E996640000000000000B0BE00000040F9244AC000000040E8296640000000000000B0BE0C00000013000000020300003C000000060000000200000000000040F9244AC000000040E8296640000000000000B0BE000000E099D94BC0000000801097664000
310
000000CDCC12C00C000000130000000A0300003C0000000600000002000000000000E099D94BC0000000801097664000000000CDCC12C000000000421C4AC0000000606606674000000000CDCC12C00C00000013000000120300003C000000060000000200000000000060A16748C0000000403E996640000000000000B0BE
310
00000000421C4AC0000000606606674000000000CDCC12C00C000000130000001A0300003C000000060000000200000000000060A16748C0000000403E996640000000000000B0BE00000080411C4A40000000606606674000000000CDCC12C00C00000013000000220300003C000000060000000200000000000060A16748
310
C0000000403E996640000000000000B0BE00000000421C4AC0000000606606674000000000CDCC12C00C000000130000002A0300003C000000060000000200000000000000421C4AC0000000606606674000000000CDCC12C000000080411C4A40000000606606674000000000CDCC12C00C00000013000000320300003C00
310
0000060000000200000000000080411C4A40000000606606674000000000CDCC12C0000000E0A0674840000000403E996640000000000000B0BE0C000000130000003A0300003C000000060000000200000000000060A16748C0000000403E996640000000000000B0BE000000E0A0674840000000403E9966400000000000
310
00B0BE0C00000013000000420300003C0000000600000002000000000000802FEC53C0000000403E996640000000000000B0BE00000060333352C0000000801097664000000000CDCC12C00C000000130000004A0300003C0000000600000002000000000000802FEC53C0000000403E996640000000000000B0BE00000040
310
DF1153C0000000606606674000000000CDCC12C00C00000013000000520300003C000000060000000200000000000040DF1153C0000000606606674000000000CDCC12C000000060333352C0000000801097664000000000CDCC12C00C000000130000005A0300003C000000060000000200000000000060333352C0000000
310
801097664000000000CDCC12C0000000A0830D53C000000040E8296640000000000000B0BE0C00000013000000620300003C0000000600000002000000000000802FEC53C0000000403E996640000000000000B0BE000000A0830D53C000000040E8296640000000000000B0BE0C000000130000006A0300003C0000000600
310
00000200000000000020333352C000000080109766C000000000CDCC12C0000000A0830D53C000000040E8296640000000000000B0BE0C00000013000000720300003C000000060000000200000000000020333352C000000080109766C000000000CDCC12C000000060830D53C000000040E82966C0000000000000B0BE0C
310
000000130000007A0300003C000000060000000200000000000060830D53C000000040E82966C0000000000000B0BE000000A0830D53C000000040E8296640000000000000B0BE0C00000013000000820300003C0000000600000002000000000000A0830D53C000000040E8296640000000000000B0BE00000060333352C0
310
000000801097664000000000CDCC12C00C000000130000008A0300003C000000060000000200000000000020333352C000000080109766C000000000CDCC12C000000060333352C0000000801097664000000000CDCC12C00C00000013000000920300003C000000060000000200000000000060E82966C0000000203E9966
310
40000000000000B0BE00000080660667C0000000601097664000000000CDCC12C00C000000130000009A0300003C000000060000000200000000000060E82966C0000000203E996640000000000000B0BE000000603E9966C000000020E8296640000000000000B0BE0C00000013000000A20300003C000000060000000200
310
0000000000603E9966C000000020E8296640000000000000B0BE00000080660667C0000000601097664000000000CDCC12C00C00000013000000AA0300003C000000060000000200000000000080660667C0000000601097664000000000CDCC12C0000000A0109766C0000000406606674000000000CDCC12C00C00000013
310
000000B20300003C000000060000000200000000000060E82966C0000000203E996640000000000000B0BE000000A0109766C0000000406606674000000000CDCC12C00C00000013000000BA0300003C0000000600000002000000000000A0109766C0000000406606674000000000CDCC12C0000000802FEC53C000000040
310
3E996640000000000000B0BE0C00000013000000C20300003C0000000600000002000000000000A0109766C0000000406606674000000000CDCC12C000000040DF1153C0000000606606674000000000CDCC12C00C00000013000000CA0300003C000000060000000200000000000040DF1153C00000006066066740000000
310
00CDCC12C0000000802FEC53C0000000403E996640000000000000B0BE0C00000013000000D20300003C0000000600000002000000000000802FEC53C0000000403E996640000000000000B0BE00000060E82966C0000000203E996640000000000000B0BE0C00000013000000DA0300003C00000006000000020000000000
310
00A0109766C0000000406606674000000000CDCC12C000000060E82966C0000000203E996640000000000000B0BE0C00000013000000E20300003C0000000600000002000000000000203E9966C000000060E82966C0000000000000B0BE00000060109766C000000080660667C000000000CDCC12C00C00000013000000EA
310
0300003C0000000600000002000000000000203E9966C000000060E82966C0000000000000B0BE00000020E82966C0000000603E9966C0000000000000B0BE0C00000013000000F20300003C000000060000000200000000000020E82966C0000000603E9966C0000000000000B0BE00000060109766C000000080660667C0
310
00000000CDCC12C00C00000013000000FA0300003C000000060000000200000000000060109766C000000080660667C000000000CDCC12C000000040660667C0000000A0109766C000000000CDCC12C00C00000013000000020400003C0000000600000002000000000000203E9966C000000060E82966C0000000000000B0
310
BE00000040660667C0000000A0109766C000000000CDCC12C00C000000130000000A0400003C0000000600000002000000000000203E9966C000000060E82966C0000000000000B0BE00000080660667C0000000601097664000000000CDCC12C00C00000013000000120400003C0000000600000002000000000000203E99
310
66C000000060E82966C0000000000000B0BE00000040660667C0000000A0109766C000000000CDCC12C00C000000130000001A0400003C000000060000000200000000000040660667C0000000A0109766C000000000CDCC12C000000080660667C0000000601097664000000000CDCC12C00C00000013000000220400003C
310
000000060000000200000000000080660667C0000000601097664000000000CDCC12C0000000603E9966C000000020E8296640000000000000B0BE0C000000130000002A0400003C0000000600000002000000000000203E9966C000000060E82966C0000000000000B0BE000000603E9966C000000020E829664000000000
310
0000B0BE0C00000013000000320400003C0000000600000002000000000000402FEC53C0000000403E9966C0000000000000B0BE00000020333352C000000080109766C000000000CDCC12C00C000000130000003A0400003C0000000600000002000000000000402FEC53C0000000403E9966C0000000000000B0BE000000
310
60830D53C000000040E82966C0000000000000B0BE0C00000013000000420400003C000000060000000200000000000060830D53C000000040E82966C0000000000000B0BE00000020333352C000000080109766C000000000CDCC12C00C000000130000004A0400003C000000060000000200000000000020333352C00000
310
0080109766C000000000CDCC12C000000000DF1153C000000060660667C000000000CDCC12C00C00000013000000520400003C0000000600000002000000000000402FEC53C0000000403E9966C0000000000000B0BE00000000DF1153C000000060660667C000000000CDCC12C00C000000130000005A0400003C00000006
310
0000000200000000000000DF1153C000000060660667C000000000CDCC12C000000020E82966C0000000603E9966C0000000000000B0BE0C00000013000000620400003C000000060000000200000000000000DF1153C000000060660667C000000000CDCC12C000000060109766C000000080660667C000000000CDCC12C0
310
0C000000130000006A0400003C000000060000000200000000000060109766C000000080660667C000000000CDCC12C000000020E82966C0000000603E9966C0000000000000B0BE0C00000013000000720400003C000000060000000200000000000020E82966C0000000603E9966C0000000000000B0BE000000402FEC53
310
C0000000403E9966C0000000000000B0BE0C000000130000007A0400003C000000060000000200000000000000DF1153C000000060660667C000000000CDCC12C0000000402FEC53C0000000403E9966C0000000000000B0BE0C00000013000000820400003C000000060000000200000000000060A1674840000000403E99
310
66C0000000000000B0BE000000E099D94B4000000080109766C000000000CDCC12C00C000000130000008A0400003C000000060000000200000000000060A1674840000000403E9966C0000000000000B0BE00000040F9244A4000000040E82966C0000000000000B0BE0C00000013000000920400003C0000000600000002
310
00000000000040F9244A4000000040E82966C0000000000000B0BE000000E099D94B4000000080109766C000000000CDCC12C00C000000130000009A0400003C0000000600000002000000000000E099D94B4000000080109766C000000000CDCC12C000000000421C4A4000000060660667C000000000CDCC12C00C000000
310
13000000A20400003C000000060000000200000000000060A1674840000000403E9966C0000000000000B0BE00000000421C4A4000000060660667C000000000CDCC12C00C00000013000000AA0400003C000000060000000200000000000080411C4AC000000060660667C000000000CDCC12C000000060A1674840000000
310
403E9966C0000000000000B0BE0C00000013000000B20400003C000000060000000200000000000080411C4AC000000060660667C000000000CDCC12C0000000E0A06748C0000000403E9966C0000000000000B0BE0C00000013000000BA0400003C0000000600000002000000000000E0A06748C0000000403E9966C00000
310
00000000B0BE00000060A1674840000000403E9966C0000000000000B0BE0C00000013000000C20400003C000000060000000200000000000060A1674840000000403E9966C0000000000000B0BE00000000421C4A4000000060660667C000000000CDCC12C00C00000013000000CA0400003C000000060000000200000000
310
000080411C4AC000000060660667C000000000CDCC12C000000000421C4A4000000060660667C000000000CDCC12C00C00000013000000D20400003C0000000600000002000000000000E0A06748C0000000403E9966C0000000000000B0BE0000006099D94BC000000080109766C000000000CDCC12C00C00000013000000
310
DA0400003C0000000600000002000000000000E0A06748C0000000403E9966C0000000000000B0BE00000080411C4AC000000060660667C000000000CDCC12C00C00000013000000E20400003C000000060000000200000000000080411C4AC000000060660667C000000000CDCC12C00000006099D94BC000000080109766
310
C000000000CDCC12C00C00000013000000EA0400003C00000006000000020000000000006099D94BC000000080109766C000000000CDCC12C0000000C0F8244AC000000040E82966C0000000000000B0BE0C00000013000000F20400003C0000000600000002000000000000E0A06748C0000000403E9966C0000000000000
310
B0BE000000C0F8244AC000000040E82966C0000000000000B0BE0C00000013000000FA0400003C00000006000000020000000000006099D94BC000000080109766C000000000CDCC12C000000040F9244AC000000040E8296640000000000000B0BE0C00000013000000020500003C00000006000000020000000000006099
310
D94BC000000080109766C000000000CDCC12C0000000E099D94BC0000000801097664000000000CDCC12C00C000000130000000A0500003C0000000600000002000000000000E099D94BC0000000801097664000000000CDCC12C000000040F9244AC000000040E8296640000000000000B0BE0C0000001300000012050000
310
3C000000060000000200000000000040F9244AC000000040E8296640000000000000B0BE000000C0F8244AC000000040E82966C0000000000000B0BE0C000000130000001A0500003C00000006000000020000000000006099D94BC000000080109766C000000000CDCC12C0000000C0F8244AC000000040E82966C0000000
310
000000B0BE0C00000013000000220500003C0000000600000002000000000000802FEC5340000000403E9966C0000000000000B0BE000000603333524000000080109766C000000000CDCC12C00C000000130000002A0500003C0000000600000002000000000000802FEC5340000000403E9966C0000000000000B0BE0000
310
0040DF11534000000060660667C000000000CDCC12C00C00000013000000320500003C000000060000000200000000000040DF11534000000060660667C000000000CDCC12C0000000603333524000000080109766C000000000CDCC12C00C000000130000003A0500003C0000000600000002000000000000603333524000
310
000080109766C000000000CDCC12C0000000A0830D534000000040E82966C0000000000000B0BE0C00000013000000420500003C0000000600000002000000000000802FEC5340000000403E9966C0000000000000B0BE000000A0830D534000000040E82966C0000000000000B0BE0C000000130000004A0500003C000000
310
0600000002000000000000603333524000000080109766C000000000CDCC12C000000060830D534000000040E8296640000000000000B0BE0C00000013000000520500003C0000000600000002000000000000603333524000000080109766C000000000CDCC12C00000002033335240000000801097664000000000CDCC12
310
C00C000000130000005A0500003C00000006000000020000000000002033335240000000801097664000000000CDCC12C000000060830D534000000040E8296640000000000000B0BE0C00000013000000620500003C000000060000000200000000000060830D534000000040E8296640000000000000B0BE000000A0830D
310
534000000040E82966C0000000000000B0BE0C000000130000006A0500003C0000000600000002000000000000603333524000000080109766C000000000CDCC12C0000000A0830D534000000040E82966C0000000000000B0BE0C00000013000000720500003C0000000600000002000000000000603E99664000000020E8
310
2966C0000000000000B0BE000000A01097664000000040660667C000000000CDCC12C00C000000130000007A0500003C0000000600000002000000000000603E99664000000020E82966C0000000000000B0BE000000806606674000000060109766C000000000CDCC12C00C00000013000000820500003C00000006000000
310
02000000000000806606674000000060109766C000000000CDCC12C0000000A01097664000000040660667C000000000CDCC12C00C000000130000008A0500003C0000000600000002000000000000A01097664000000040660667C000000000CDCC12C000000060E8296640000000203E9966C0000000000000B0BE0C0000
310
0013000000920500003C0000000600000002000000000000603E99664000000020E82966C0000000000000B0BE00000060E8296640000000203E9966C0000000000000B0BE0C000000130000009A0500003C0000000600000002000000000000A01097664000000040660667C000000000CDCC12C0000000802FEC53400000
310
00403E9966C0000000000000B0BE0C00000013000000A20500003C0000000600000002000000000000A01097664000000040660667C000000000CDCC12C000000040DF11534000000060660667C000000000CDCC12C00C00000013000000AA0500003C000000060000000200000000000040DF11534000000060660667C000
310
000000CDCC12C0000000802FEC5340000000403E9966C0000000000000B0BE0C00000013000000B20500003C0000000600000002000000000000802FEC5340000000403E9966C0000000000000B0BE00000060E8296640000000203E9966C0000000000000B0BE0C00000013000000BA0500003C0000000600000002000000
310
000000A01097664000000040660667C000000000CDCC12C000000060E8296640000000203E9966C0000000000000B0BE0C00000013000000C20500003C000000060000000200000000000080FD6B734000000000007073C000000060000000C0000000A0FA6C734000000020F86873C000000000CDCC12C00C000000130000
310
00CA0500003C000000060000000200000000000080FD6B734000000000007073C000000060000000C000000020F8687340000000A0FA6C73C000000000CDCC12C00C00000013000000D20500003C000000060000000200000000000020F8687340000000A0FA6C73C000000000CDCC12C0000000A0FA6C734000000020F868
310
73C000000000CDCC12C00C00000013000000DA0500003C0000000600000002000000000000A0FA6C734000000020F86873C000000000CDCC12C0000000000070734000000080FD6B73C000000060000000C00C00000013000000E20500003C000000060000000200000000000080FD6B734000000000007073C00000006000
310
0000C0000000000070734000000080FD6B73C000000060000000C00C00000013000000EA0500003C000000060000000200000000000080FD6B73C000000000007073C000000060000000C000000020F8687340000000A0FA6C73C000000000CDCC12C00C00000013000000F20500003C000000060000000200000000000080
310
FD6B73C000000000007073C000000060000000C000000020F86873C0000000A0FA6C73C000000000CDCC12C00C00000013000000FA0500003C000000060000000200000000000020F86873C0000000A0FA6C73C000000000CDCC12C000000020F8687340000000A0FA6C73C000000000CDCC12C00C00000013000000020600
310
003C000000060000000200000000000020F8687340000000A0FA6C73C000000000CDCC12C000000080FD6B734000000000007073C000000060000000C00C000000130000000A0600003C000000060000000200000000000080FD6B73C000000000007073C000000060000000C000000080FD6B734000000000007073C00000
310
0060000000C00C00000013000000120600003C0000000600000002000000000000C0CC3873C0000000C0CC3C73C000000060000000C000000000007073C000000080FD6B73C000000060000000C00C000000130000001A0600003C0000000600000002000000000000C0CC3873C0000000C0CC3C73C000000060000000C000
310
0000C0CC3C73C0000000C0CC3873C000000060000000C00C00000013000000220600003C0000000600000002000000000000C0CC3C73C0000000C0CC3873C000000060000000C000000000007073C000000080FD6B73C000000060000000C00C000000130000002A0600003C000000060000000200000000000000007073C0
310
00000080FD6B734000000060000000C0000000C0CC3C73C0000000C0CC3873C000000060000000C00C00000013000000320600003C000000060000000200000000000000007073C000000080FD6B734000000060000000C000000000007073C000000080FD6B73C000000060000000C00C000000130000003A0600003C0000
310
00060000000200000000000000007073C000000080FD6B734000000060000000C0000000C0CC3C73C0000000C0CC38734000000060000000C00C00000013000000420600003C0000000600000002000000000000C0CC3C73C0000000C0CC3873C000000060000000C0000000C0CC3C73C0000000C0CC387340000000600000
310
00C00C000000130000004A0600003C000000060000000200000000000080FD6B73C0000000000070734000000060000000C0000000C0CC3C73C0000000C0CC38734000000060000000C00C00000013000000520600003C000000060000000200000000000000007073C000000080FD6B734000000060000000C000000080FD
310
6B73C0000000000070734000000060000000C00C000000130000005A0600003C000000060000000200000000000080FD6B73C0000000000070734000000060000000C0000000C0CC3873C0000000C0CC3C734000000060000000C00C00000013000000620600003C0000000600000002000000000000C0CC3C73C0000000C0
310
CC38734000000060000000C0000000C0CC3873C0000000C0CC3C734000000060000000C00C000000130000006A0600003C000000060000000200000000000080FD6B7340000000000070734000000060000000C0000000C0CC3873C0000000C0CC3C734000000060000000C00C00000013000000720600003C000000060000
310
000200000000000080FD6B73C0000000000070734000000060000000C000000080FD6B7340000000000070734000000060000000C00C000000130000007A0600003C000000060000000200000000000080FD6B7340000000000070734000000060000000C0000000C0CC387340000000C0CC3C734000000060000000C00C00
310
000013000000820600003C0000000600000002000000000000C0CC3873C0000000C0CC3C734000000060000000C0000000C0CC387340000000C0CC3C734000000060000000C00C000000130000008A0600003C0000000600000002000000000000000070734000000080FD6B734000000060000000C0000000C0CC38734000
310
0000C0CC3C734000000060000000C00C00000013000000920600003C000000060000000200000000000080FD6B7340000000000070734000000060000000C0000000000070734000000080FD6B734000000060000000C00C000000130000009A0600003C0000000600000002000000000000000070734000000080FD6B7340
310
00000060000000C0000000C0CC3C7340000000C0CC38734000000060000000C00C00000013000000A20600003C0000000600000002000000000000C0CC387340000000C0CC3C734000000060000000C0000000C0CC3C7340000000C0CC38734000000060000000C00C00000013000000AA0600003C00000006000000020000
310
00000000000070734000000080FD6B73C000000060000000C0000000C0CC3C7340000000C0CC38734000000060000000C00C00000013000000B20600003C0000000600000002000000000000000070734000000080FD6B734000000060000000C0000000000070734000000080FD6B73C000000060000000C00C0000001300
310
0000BA0600003C0000000600000002000000000000000070734000000080FD6B73C000000060000000C0000000C0CC3C7340000000C0CC3873C000000060000000C00C00000013000000C20600003C0000000600000002000000000000C0CC3C7340000000C0CC38734000000060000000C0000000C0CC3C7340000000C0CC
310
3873C000000060000000C00C00000013000000CA0600003C000000060000000200000000000080FD6B734000000000007073C000000060000000C0000000C0CC3C7340000000C0CC3873C000000060000000C00C00000013000000D20600003C0000000600000002000000000000000070734000000080FD6B73C000000060
310
000000C000000080FD6B734000000000007073C000000060000000C00C00000013000000DA0600003C000000060000000200000000000080FD6B734000000000007073C000000060000000C0000000C0CC387340000000C0CC3C73C000000060000000C00C00000013000000E20600003C0000000600000002000000000000
310
C0CC3C7340000000C0CC3873C000000060000000C0000000C0CC387340000000C0CC3C73C000000060000000C00C00000013000000EA0600003C000000060000000200000000000080FD6B73C000000000007073C000000060000000C0000000C0CC387340000000C0CC3C73C000000060000000C00C00000013000000F206
310
00003C000000060000000200000000000080FD6B734000000000007073C000000060000000C000000080FD6B73C000000000007073C000000060000000C00C00000013000000FA0600003C0000000600000002000000000000C0CC3873C0000000C0CC3C73C000000060000000C000000080FD6B73C000000000007073C000
310
000060000000C00C00000013000000020700003C0000000600000002000000000000C0CC3873C0000000C0CC3C73C000000060000000C0000000C0CC387340000000C0CC3C73C000000060000000C00C000000130000000A0700003C000000060000000200000000000080FD6B73C000000000007073C000000060000000C0
310
00000000007073C000000080FD6B73C000000060000000C00C00000013000000120700003C000000060000000200000000000020F86873C0000000A0FA6C73C000000000CDCC12C000000000007073C000000080FD6B73C000000060000000C00C000000130000001A0700003C000000060000000200000000000020F86873
310
C0000000A0FA6C73C000000000CDCC12C000000080FD6B73C000000000007073C000000060000000C00C00000013000000220700003C000000060000000200000000000080FD6B73C000000000007073C000000060000000C000000000007073C000000080FD6B73C000000060000000C00C000000130000002A0700003C00
310
0000060000000200000000000000007073C000000080FD6B73C000000060000000C0000000A0FA6C73C000000020F86873C000000000CDCC12C00C00000013000000320700003C000000060000000200000000000020F86873C0000000A0FA6C73C000000000CDCC12C0000000A0FA6C73C000000020F86873C000000000CD
310
CC12C00C000000130000003A0700003C000000060000000200000000000000007073C000000080FD6B734000000060000000C0000000A0FA6C73C000000020F86873C000000000CDCC12C00C00000013000000420700003C000000060000000200000000000000007073C000000080FD6B734000000060000000C0000000A0
310
FA6C73C000000020F868734000000000CDCC12C00C000000130000004A0700003C0000000600000002000000000000A0FA6C73C000000020F868734000000000CDCC12C0000000A0FA6C73C000000020F86873C000000000CDCC12C00C00000013000000520700003C0000000600000002000000000000A0FA6C73C0000000
310
20F86873C000000000CDCC12C000000000007073C000000080FD6B73C000000060000000C00C000000130000005A0700003C000000060000000200000000000000007073C000000080FD6B734000000060000000C000000000007073C000000080FD6B73C000000060000000C00C00000013000000620700003C0000000600
310
000002000000000000A0FA6C73C000000020F868734000000000CDCC12C000000080FD6B73C0000000000070734000000060000000C00C000000130000006A0700003C0000000600000002000000000000A0FA6C73C000000020F868734000000000CDCC12C000000000007073C000000080FD6B734000000060000000C00C
310
00000013000000720700003C000000060000000200000000000000007073C000000080FD6B734000000060000000C000000080FD6B73C0000000000070734000000060000000C00C000000130000007A0700003C000000060000000200000000000080FD6B73C0000000000070734000000060000000C000000020F86873C0
310
000000A0FA6C734000000000CDCC12C00C00000013000000820700003C0000000600000002000000000000A0FA6C73C000000020F868734000000000CDCC12C000000020F86873C0000000A0FA6C734000000000CDCC12C00C000000130000008A0700003C000000060000000200000000000020F8687340000000A0FA6C73
310
4000000000CDCC12C000000080FD6B73C0000000000070734000000060000000C00C00000013000000920700003C000000060000000200000000000020F8687340000000A0FA6C734000000000CDCC12C000000020F86873C0000000A0FA6C734000000000CDCC12C00C000000130000009A0700003C000000060000000200
310
000000000020F86873C0000000A0FA6C734000000000CDCC12C000000080FD6B73C0000000000070734000000060000000C00C00000013000000A20700003C000000060000000200000000000080FD6B73C0000000000070734000000060000000C000000080FD6B7340000000000070734000000060000000C00C00000013
310
000000AA0700003C000000060000000200000000000020F8687340000000A0FA6C734000000000CDCC12C000000080FD6B7340000000000070734000000060000000C00C00000013000000B20700003C0000000600000002000000000000000070734000000080FD6B734000000060000000C000000020F8687340000000A0
310
FA6C734000000000CDCC12C00C00000013000000BA0700003C0000000600000002000000000000000070734000000080FD6B734000000060000000C0000000A0FA6C734000000020F868734000000000CDCC12C00C00000013000000C20700003C0000000600000002000000000000A0FA6C734000000020F8687340000000
310
00CDCC12C000000020F8687340000000A0FA6C734000000000CDCC12C00C00000013000000CA0700003C000000060000000200000000000020F8687340000000A0FA6C734000000000CDCC12C000000080FD6B7340000000000070734000000060000000C00C00000013000000D20700003C00000006000000020000000000
310
00000070734000000080FD6B734000000060000000C000000080FD6B7340000000000070734000000060000000C00C00000013000000DA0700003C0000000600000002000000000000A0FA6C734000000020F868734000000000CDCC12C0000000000070734000000080FD6B73C000000060000000C00C00000013000000E2
310
0700003C0000000600000002000000000000A0FA6C734000000020F868734000000000CDCC12C0000000000070734000000080FD6B734000000060000000C00C00000013000000EA0700003C0000000600000002000000000000000070734000000080FD6B734000000060000000C0000000000070734000000080FD6B73C0
310
00000060000000C00C00000013000000F20700003C0000000600000002000000000000000070734000000080FD6B73C000000060000000C0000000A0FA6C734000000020F86873C000000000CDCC12C00C00000013000000FA0700003C0000000600000002000000000000A0FA6C734000000020F868734000000000CDCC12
310
C0000000A0FA6C734000000020F86873C000000000CDCC12C00C00000013000000020800003C0000000600000002000000000000C0CC387340000000C0CC3C734000000060000000C0000000C0CC3C7340000000C0CC387340000000000000B0BE0C000000130000000A0800003C0000000600000002000000000000C0CC38
310
7340000000C0CC3C734000000060000000C0000000C0CC387340000000C0CC3C7340000000000000B0BE0C00000013000000120800003C0000000600000002000000000000C0CC387340000000C0CC3C7340000000000000B0BE000000C0CC3C7340000000C0CC387340000000000000B0BE0C000000130000001A0800003C
310
0000000600000002000000000000C0CC3C7340000000C0CC387340000000000000B0BE000000C0CC3C7340000000C0CC38734000000060000000C00C00000013000000220800003C0000000600000002000000000000C0CC387340000000C0CC3C734000000060000000C0000000C0CC3C7340000000C0CC38734000000060
310
000000C00C000000130000002A0800003C00000006000000020000000000000000F871400000000000F871C0000000000000B0BE000000C0CC3C7340000000C0CC3873C0000000000000B0BE0C00000013000000320800003C0000000600000002000000000000C0CC387340000000C0CC3C73C0000000000000B0BE000000
310
0000F871400000000000F871C0000000000000B0BE0C000000130000003A0800003C0000000600000002000000000000C0CC387340000000C0CC3C73C0000000000000B0BE000000C0CC3C7340000000C0CC3873C0000000000000B0BE0C00000013000000420800003C0000000600000002000000000000C0CC3873C00000
310
00C0CC3C73C0000000000000B0BE0000000000F871400000000000F871C0000000000000B0BE0C000000130000004A0800003C0000000600000002000000000000C0CC387340000000C0CC3C73C0000000000000B0BE000000C0CC3873C0000000C0CC3C73C0000000000000B0BE0C00000013000000520800003C00000006
310
00000002000000000000C0CC3873C0000000C0CC3C73C0000000000000B0BE0000000000F871C00000000000F871C0000000000000B0BE0C000000130000005A0800003C00000006000000020000000000000000F871400000000000F871C0000000000000B0BE0000000000F871C00000000000F871C0000000000000B0BE
310
0C00000013000000620800003C0000000600000002000000000000C0CC3C73C0000000C0CC3873C0000000000000B0BE0000000000F871C00000000000F871C0000000000000B0BE0C000000130000006A0800003C0000000600000002000000000000C0CC3873C0000000C0CC3C73C0000000000000B0BE000000C0CC3C73
310
C0000000C0CC3873C0000000000000B0BE0C00000013000000720800003C0000000600000002000000000000C0CC3C73C0000000C0CC387340000000000000B0BE0000000000F871C00000000000F871C0000000000000B0BE0C000000130000007A0800003C0000000600000002000000000000C0CC3C73C0000000C0CC38
310
73C0000000000000B0BE000000C0CC3C73C0000000C0CC387340000000000000B0BE0C00000013000000820800003C0000000600000002000000000000C0CC3C73C0000000C0CC387340000000000000B0BE0000000000F871C00000000000F87140000000000000B0BE0C000000130000008A0800003C0000000600000002
310
0000000000000000F871C00000000000F871C0000000000000B0BE0000000000F871C00000000000F87140000000000000B0BE0C00000013000000920800003C0000000600000002000000000000C0CC3873C0000000C0CC3C7340000000000000B0BE0000000000F871C00000000000F87140000000000000B0BE0C000000
310
130000009A0800003C0000000600000002000000000000C0CC3C73C0000000C0CC387340000000000000B0BE000000C0CC3873C0000000C0CC3C7340000000000000B0BE0C00000013000000A20800003C0000000600000002000000000000C0CC387340000000C0CC3C7340000000000000B0BE0000000000F871C0000000
310
0000F87140000000000000B0BE0C00000013000000AA0800003C0000000600000002000000000000C0CC3873C0000000C0CC3C7340000000000000B0BE000000C0CC387340000000C0CC3C7340000000000000B0BE0C00000013000000B20800003C0000000600000002000000000000C0CC387340000000C0CC3C73400000
310
00000000B0BE0000000000F871400000000000F87140000000000000B0BE0C00000013000000BA0800003C00000006000000020000000000000000F871C00000000000F87140000000000000B0BE0000000000F871400000000000F87140000000000000B0BE0C00000013000000C20800003C000000060000000200000000
310
0000C0CC3C7340000000C0CC387340000000000000B0BE0000000000F871400000000000F87140000000000000B0BE0C00000013000000CA0800003C0000000600000002000000000000C0CC387340000000C0CC3C7340000000000000B0BE000000C0CC3C7340000000C0CC387340000000000000B0BE0C00000013000000
310
D20800003C0000000600000002000000000000C0CC3C7340000000C0CC3873C0000000000000B0BE0000000000F871400000000000F87140000000000000B0BE0C00000013000000DA0800003C0000000600000002000000000000C0CC3C7340000000C0CC387340000000000000B0BE000000C0CC3C7340000000C0CC3873
310
C0000000000000B0BE0C00000013000000E20800003C00000006000000020000000000000000F871400000000000F871C0000000000000B0BE0000000000F871400000000000F87140000000000000B0BE0C00000013000000EA0800003C0000000600000002000000000000C0CC3873C0000000C0CC3C7340000000000000
310
B0BE000000C0CC387340000000C0CC3C734000000060000000C00C00000013000000F20800003C0000000600000002000000000000C0CC3873C0000000C0CC3C7340000000000000B0BE000000C0CC387340000000C0CC3C7340000000000000B0BE0C00000013000000FA0800003C0000000600000002000000000000C0CC
310
387340000000C0CC3C7340000000000000B0BE000000C0CC387340000000C0CC3C734000000060000000C00C00000013000000020900003C0000000600000002000000000000C0CC387340000000C0CC3C734000000060000000C0000000C0CC3873C0000000C0CC3C734000000060000000C00C000000130000000A090000
310
3C0000000600000002000000000000C0CC3873C0000000C0CC3C7340000000000000B0BE000000C0CC3873C0000000C0CC3C734000000060000000C00C00000013000000120900003C0000000600000002000000000000C0CC3C73C0000000C0CC38734000000060000000C0000000C0CC3873C0000000C0CC3C7340000000
310
000000B0BE0C000000130000001A0900003C0000000600000002000000000000C0CC3C73C0000000C0CC38734000000060000000C0000000C0CC3C73C0000000C0CC387340000000000000B0BE0C00000013000000220900003C0000000600000002000000000000C0CC3C73C0000000C0CC387340000000000000B0BE0000
310
00C0CC3873C0000000C0CC3C7340000000000000B0BE0C000000130000002A0900003C0000000600000002000000000000C0CC3873C0000000C0CC3C7340000000000000B0BE000000C0CC3873C0000000C0CC3C734000000060000000C00C00000013000000320900003C0000000600000002000000000000C0CC3C73C000
310
0000C0CC38734000000060000000C0000000C0CC3873C0000000C0CC3C734000000060000000C00C000000130000003A0900003C0000000600000002000000000000C0CC3873C0000000C0CC3C73C000000060000000C0000000C0CC3C73C0000000C0CC3873C0000000000000B0BE0C00000013000000420900003C000000
310
0600000002000000000000C0CC3873C0000000C0CC3C73C000000060000000C0000000C0CC3873C0000000C0CC3C73C0000000000000B0BE0C000000130000004A0900003C0000000600000002000000000000C0CC3873C0000000C0CC3C73C0000000000000B0BE000000C0CC3C73C0000000C0CC3873C0000000000000B0
310
BE0C00000013000000520900003C0000000600000002000000000000C0CC3C73C0000000C0CC3873C0000000000000B0BE000000C0CC3C73C0000000C0CC3873C000000060000000C00C000000130000005A0900003C0000000600000002000000000000C0CC3873C0000000C0CC3C73C000000060000000C0000000C0CC3C
310
73C0000000C0CC3873C000000060000000C00C00000013000000620900003C0000000600000002000000000000C0CC387340000000C0CC3C73C0000000000000B0BE000000C0CC3873C0000000C0CC3C73C000000060000000C00C000000130000006A0900003C0000000600000002000000000000C0CC387340000000C0CC
310
3C73C0000000000000B0BE000000C0CC3873C0000000C0CC3C73C0000000000000B0BE0C00000013000000720900003C0000000600000002000000000000C0CC3873C0000000C0CC3C73C0000000000000B0BE000000C0CC3873C0000000C0CC3C73C000000060000000C00C000000130000007A0900003C00000006000000
310
02000000000000C0CC3873C0000000C0CC3C73C000000060000000C0000000C0CC387340000000C0CC3C73C000000060000000C00C00000013000000820900003C0000000600000002000000000000C0CC387340000000C0CC3C73C0000000000000B0BE000000C0CC387340000000C0CC3C73C000000060000000C00C0000
310
00130000008A0900003C0000000600000002000000000000C0CC3C7340000000C0CC3873C000000060000000C0000000C0CC387340000000C0CC3C73C0000000000000B0BE0C00000013000000920900003C0000000600000002000000000000C0CC3C7340000000C0CC3873C000000060000000C0000000C0CC3C73400000
310
00C0CC3873C0000000000000B0BE0C000000130000009A0900003C0000000600000002000000000000C0CC3C7340000000C0CC3873C0000000000000B0BE000000C0CC387340000000C0CC3C73C0000000000000B0BE0C00000013000000A20900003C0000000600000002000000000000C0CC387340000000C0CC3C73C000
310
0000000000B0BE000000C0CC387340000000C0CC3C73C000000060000000C00C00000013000000AA0900003C0000000600000002000000000000C0CC3C7340000000C0CC3873C000000060000000C0000000C0CC387340000000C0CC3C73C000000060000000C00C00000013000000B20900003C0000000600000002000000
310
000000C0CC3C7340000000C0CC3873C000000060000000C0000000C0CC3C7340000000C0CC387340000000000000B0BE0C00000013000000BA0900003C0000000600000002000000000000C0CC3C7340000000C0CC3873C000000060000000C0000000C0CC3C7340000000C0CC38734000000060000000C00C000000130000
310
00C20900003C0000000600000002000000000000C0CC3C7340000000C0CC38734000000060000000C0000000C0CC3C7340000000C0CC387340000000000000B0BE0C00000013000000CA0900003C0000000600000002000000000000C0CC3C7340000000C0CC387340000000000000B0BE000000C0CC3C7340000000C0CC38
310
73C0000000000000B0BE0C00000013000000D20900003C0000000600000002000000000000C0CC3C7340000000C0CC3873C000000060000000C0000000C0CC3C7340000000C0CC3873C0000000000000B0BE0C00000013000000DA0900003C0000000600000002000000000000C0CC3C73C0000000C0CC3873C00000000000
310
00B0BE000000C0CC3C73C0000000C0CC38734000000060000000C00C00000013000000E20900003C0000000600000002000000000000C0CC3C73C0000000C0CC3873C0000000000000B0BE000000C0CC3C73C0000000C0CC387340000000000000B0BE0C00000013000000EA0900003C0000000600000002000000000000C0
310
CC3C73C0000000C0CC387340000000000000B0BE000000C0CC3C73C0000000C0CC38734000000060000000C00C00000013000000F20900003C0000000600000002000000000000C0CC3C73C0000000C0CC38734000000060000000C0000000C0CC3C73C0000000C0CC3873C000000060000000C00C00000013000000FA0900
310
003C0000000600000002000000000000C0CC3C73C0000000C0CC3873C0000000000000B0BE000000C0CC3C73C0000000C0CC3873C000000060000000C00C00000013000000020A00003C0000000600000002000000000000A0FA6C734000000020F86873C000000000CDCC12C000000000421C4A4000000060660667C00000
310
0000CDCC12C00C000000130000000A0A00003C000000060000000200000000000000421C4A4000000060660667C000000000CDCC12C000000040DF11534000000060660667C000000000CDCC12C00C00000013000000120A00003C0000000600000002000000000000A0FA6C734000000020F86873C000000000CDCC12C000
310
000040DF11534000000060660667C000000000CDCC12C00C000000130000001A0A00003C0000000600000002000000000000A0FA6C73C000000020F868734000000000CDCC12C000000040660667C0000000A0109766C000000000CDCC12C00C00000013000000220A00003C0000000600000002000000000000A0FA6C73C0
310
00000020F86873C000000000CDCC12C000000040660667C0000000A0109766C000000000CDCC12C00C000000130000002A0A00003C0000000600000002000000000000A0FA6C73C000000020F86873C000000000CDCC12C0000000A0FA6C73C000000020F868734000000000CDCC12C00C00000013000000320A00003C0000
310
00060000000200000000000080660667C0000000601097664000000000CDCC12C0000000A0FA6C73C000000020F868734000000000CDCC12C00C000000130000003A0A00003C000000060000000200000000000080660667C0000000601097664000000000CDCC12C000000040660667C0000000A0109766C000000000CDCC
310
12C00C00000013000000420A00003C0000000600000002000000000000A0109766C0000000406606674000000000CDCC12C0000000A0FA6C73C000000020F868734000000000CDCC12C00C000000130000004A0A00003C000000060000000200000000000080660667C0000000601097664000000000CDCC12C0000000A010
310
9766C0000000406606674000000000CDCC12C00C00000013000000520A00003C0000000600000002000000000000A0109766C0000000406606674000000000CDCC12C000000020F86873C0000000A0FA6C734000000000CDCC12C00C000000130000005A0A00003C0000000600000002000000000000A0FA6C73C000000020
310
F868734000000000CDCC12C000000020F86873C0000000A0FA6C734000000000CDCC12C00C00000013000000620A00003C0000000600000002000000000000A0109766C0000000406606674000000000CDCC12C000000020F8687340000000A0FA6C734000000000CDCC12C00C000000130000006A0A00003C000000060000
310
000200000000000020F86873C0000000A0FA6C734000000000CDCC12C000000020F8687340000000A0FA6C734000000000CDCC12C00C00000013000000720A00003C000000060000000200000000000040DF1153C0000000606606674000000000CDCC12C000000020F8687340000000A0FA6C734000000000CDCC12C00C00
310
0000130000007A0A00003C0000000600000002000000000000A0109766C0000000406606674000000000CDCC12C000000040DF1153C0000000606606674000000000CDCC12C00C00000013000000820A00003C000000060000000200000000000060333352C0000000801097664000000000CDCC12C000000020F868734000
310
0000A0FA6C734000000000CDCC12C00C000000130000008A0A00003C000000060000000200000000000040DF1153C0000000606606674000000000CDCC12C000000060333352C0000000801097664000000000CDCC12C00C00000013000000920A00003C0000000600000002000000000000E099D94B4000000080109766C0
310
00000000CDCC12C00000002033335240000000801097664000000000CDCC12C00C000000130000009A0A00003C0000000600000002000000000000E099D94B4000000080109766C000000000CDCC12C00000006099D94B40000000801097664000000000CDCC12C00C00000013000000A20A00003C00000006000000020000
310
000000002033335240000000801097664000000000CDCC12C00000006099D94B40000000801097664000000000CDCC12C00C00000013000000AA0A00003C0000000600000002000000000000E099D94B4000000080109766C000000000CDCC12C0000000603333524000000080109766C000000000CDCC12C00C0000001300
310
0000B20A00003C00000006000000020000000000002033335240000000801097664000000000CDCC12C0000000603333524000000080109766C000000000CDCC12C00C00000013000000BA0A00003C000000060000000200000000000020333352C000000080109766C000000000CDCC12C0000000E099D94BC00000008010
310
97664000000000CDCC12C00C00000013000000C20A00003C000000060000000200000000000060333352C0000000801097664000000000CDCC12C000000020333352C000000080109766C000000000CDCC12C00C00000013000000CA0A00003C000000060000000200000000000060333352C0000000801097664000000000
310
CDCC12C0000000E099D94BC0000000801097664000000000CDCC12C00C00000013000000D20A00003C000000060000000200000000000020333352C000000080109766C000000000CDCC12C00000006099D94BC000000080109766C000000000CDCC12C00C00000013000000DA0A00003C0000000600000002000000000000
310
E099D94BC0000000801097664000000000CDCC12C00000006099D94BC000000080109766C000000000CDCC12C00C00000013000000E20A00003C0000000600000002000000000000A0FA6C73C000000020F86873C000000000CDCC12C000000060109766C000000080660667C000000000CDCC12C00C00000013000000EA0A
310
00003C000000060000000200000000000040660667C0000000A0109766C000000000CDCC12C000000060109766C000000080660667C000000000CDCC12C00C00000013000000F20A00003C000000060000000200000000000020F86873C0000000A0FA6C73C000000000CDCC12C000000060109766C000000080660667C000
310
000000CDCC12C00C00000013000000FA0A00003C0000000600000002000000000000A0FA6C73C000000020F86873C000000000CDCC12C000000020F86873C0000000A0FA6C73C000000000CDCC12C00C00000013000000020B00003C000000060000000200000000000020F8687340000000A0FA6C73C000000000CDCC12C0
310
00000060109766C000000080660667C000000000CDCC12C00C000000130000000A0B00003C000000060000000200000000000020F86873C0000000A0FA6C73C000000000CDCC12C000000020F8687340000000A0FA6C73C000000000CDCC12C00C00000013000000120B00003C000000060000000200000000000020F86873
310
40000000A0FA6C73C000000000CDCC12C000000000DF1153C000000060660667C000000000CDCC12C00C000000130000001A0B00003C000000060000000200000000000060109766C000000080660667C000000000CDCC12C000000000DF1153C000000060660667C000000000CDCC12C00C00000013000000220B00003C00
310
0000060000000200000000000020333352C000000080109766C000000000CDCC12C000000020F8687340000000A0FA6C73C000000000CDCC12C00C000000130000002A0B00003C000000060000000200000000000020333352C000000080109766C000000000CDCC12C000000000DF1153C000000060660667C000000000CD
310
CC12C00C00000013000000320B00003C000000060000000200000000000020333352C000000080109766C000000000CDCC12C0000000A0FA6C734000000020F86873C000000000CDCC12C00C000000130000003A0B00003C000000060000000200000000000020F8687340000000A0FA6C73C000000000CDCC12C0000000A0
310
FA6C734000000020F86873C000000000CDCC12C00C00000013000000420B00003C000000060000000200000000000060333352C0000000801097664000000000CDCC12C0000000A0FA6C734000000020F868734000000000CDCC12C00C000000130000004A0B00003C000000060000000200000000000020F8687340000000
310
A0FA6C734000000000CDCC12C0000000A0FA6C734000000020F868734000000000CDCC12C00C00000013000000520B00003C000000060000000200000000000000DF115340000000606606674000000000CDCC12C00000006099D94B40000000801097664000000000CDCC12C00C000000130000005A0B00003C0000000600
310
0000020000000000002033335240000000801097664000000000CDCC12C000000000DF115340000000606606674000000000CDCC12C00C00000013000000620B00003C000000060000000200000000000000DF115340000000606606674000000000CDCC12C000000080411C4A40000000606606674000000000CDCC12C00C
310
000000130000006A0B00003C00000006000000020000000000006099D94B40000000801097664000000000CDCC12C000000080411C4A40000000606606674000000000CDCC12C00C00000013000000720B00003C0000000600000002000000000000E099D94B4000000080109766C000000000CDCC12C000000040DF115340
310
00000060660667C000000000CDCC12C00C000000130000007A0B00003C0000000600000002000000000000603333524000000080109766C000000000CDCC12C000000040DF11534000000060660667C000000000CDCC12C00C00000013000000820B00003C0000000600000002000000000000E099D94B4000000080109766
310
C000000000CDCC12C000000000421C4A4000000060660667C000000000CDCC12C00C000000130000008A0B00003C000000060000000200000000000060333352C0000000801097664000000000CDCC12C000000000421C4AC0000000606606674000000000CDCC12C00C00000013000000920B00003C000000060000000200
310
0000000000E099D94BC0000000801097664000000000CDCC12C000000000421C4AC0000000606606674000000000CDCC12C00C000000130000009A0B00003C000000060000000200000000000000421C4AC0000000606606674000000000CDCC12C0000000A0FA6C734000000020F868734000000000CDCC12C00C00000013
310
000000A20B00003C000000060000000200000000000080411C4A40000000606606674000000000CDCC12C0000000A0FA6C734000000020F868734000000000CDCC12C00C00000013000000AA0B00003C000000060000000200000000000000421C4AC0000000606606674000000000CDCC12C000000080411C4A4000000060
310
6606674000000000CDCC12C00C00000013000000B20B00003C000000060000000200000000000000DF115340000000606606674000000000CDCC12C0000000A0FA6C734000000020F868734000000000CDCC12C00C00000013000000BA0B00003C000000060000000200000000000060109766400000008066066740000000
310
00CDCC12C0000000A0FA6C734000000020F868734000000000CDCC12C00C00000013000000C20B00003C000000060000000200000000000000DF115340000000606606674000000000CDCC12C00000006010976640000000806606674000000000CDCC12C00C00000013000000CA0B00003C00000006000000020000000000
310
004066066740000000A01097664000000000CDCC12C0000000A0FA6C734000000020F868734000000000CDCC12C00C00000013000000D20B00003C00000006000000020000000000006010976640000000806606674000000000CDCC12C00000004066066740000000A01097664000000000CDCC12C00C00000013000000DA
310
0B00003C0000000600000002000000000000A0FA6C734000000020F86873C000000000CDCC12C00000004066066740000000A01097664000000000CDCC12C00C00000013000000E20B00003C0000000600000002000000000000A0FA6C734000000020F86873C000000000CDCC12C0000000A0FA6C734000000020F8687340
310
00000000CDCC12C00C00000013000000EA0B00003C0000000600000002000000000000A0FA6C734000000020F86873C000000000CDCC12C0000000806606674000000060109766C000000000CDCC12C00C00000013000000F20B00003C00000006000000020000000000004066066740000000A01097664000000000CDCC12
310
C0000000806606674000000060109766C000000000CDCC12C00C00000013000000FA0B00003C0000000600000002000000000000A0FA6C734000000020F86873C000000000CDCC12C0000000A01097664000000040660667C000000000CDCC12C00C00000013000000020C00003C0000000600000002000000000000806606
310
674000000060109766C000000000CDCC12C0000000A01097664000000040660667C000000000CDCC12C00C000000130000000A0C00003C0000000600000002000000000000A01097664000000040660667C000000000CDCC12C000000040DF11534000000060660667C000000000CDCC12C00C00000013000000120C00003C
310
000000060000000200000000000020333352C000000080109766C000000000CDCC12C000000080411C4AC000000060660667C000000000CDCC12C00C000000130000001A0C00003C00000006000000020000000000006099D94BC000000080109766C000000000CDCC12C000000080411C4AC000000060660667C000000000
310
CDCC12C00C00000013000000220C00003C0000000600000002000000000000A0FA6C734000000020F86873C000000000CDCC12C000000080411C4AC000000060660667C000000000CDCC12C00C000000130000002A0C00003C000000060000000200000000000000421C4A4000000060660667C000000000CDCC12C0000000
310
80411C4AC000000060660667C000000000CDCC12C0
100
AcDbSubDMesh
 71
     2
 72
     0
 91
        0
 92
      264
 10
79.69038391113281
 20
180.7888488769531
 30
-0.0000009536743164
 10
177.309585571289
 20
180.7888641357422
 30
-0.0000009536743164
 10
180.7888641357422
 20
-177.309585571289
 30
-0.0000009536743164
 10
177.3096160888672
 20
-180.788833618164
 30
-0.0000009536743164
 10
180.788833618164
 20
177.3096160888672
 30
-0.0000009536743164
 10
79.69039916992187
 20
-180.7888488769531
 30
-0.0000009536743164
 10
76.2111587524414
 20
-177.3096008300781
 30
-0.0000009536743164
 10
76.21114349365234
 20
177.3096008300781
 30
-0.0000009536743164
 10
-177.3096160888672
 20
180.788833618164
 30
-0.0000009536743164
 10
-79.69039916992187
 20
180.7888488769531
 30
-0.0000009536743164
 10
-76.21114349365234
 20
-177.3096008300781
 30
-0.0000009536743164
 10
-79.69038391113281
 20
-180.7888488769531
 30
-0.0000009536743164
 10
-76.2111587524414
 20
177.3096008300781
 30
-0.0000009536743164
 10
-177.309585571289
 20
-180.7888641357422
 30
-0.0000009536743164
 10
-180.788833618164
 20
-177.3096160888672
 30
-0.0000009536743164
 10
-180.7888641357422
 20
177.309585571289
 30
-0.0000009536743164
 10
-48.80961227416992
 20
180.7888488769531
 30
-0.0000009536743164
 10
48.80959701538086
 20
180.7888488769531
 30
-0.0000009536743164
 10
48.80961227416992
 20
-180.7888488769531
 30
-0.0000009536743164
 10
-48.80959701538086
 20
-180.7888488769531
 30
-0.0000009536743164
 10
-52.28884124755859
 20
-177.3096008300781
 30
-0.0000009536743164
 10
52.28885650634765
 20
-177.3096008300781
 30
-0.0000009536743164
 10
52.28884124755859
 20
177.3096008300781
 30
-0.0000009536743164
 10
-52.28885650634765
 20
177.3096008300781
 30
-0.0000009536743164
 10
287.5
 20
287.5
 30
37.0
 10
287.5
 20
287.5
 30
-0.0000009536743164
 10
-287.5
 20
287.5
 30
-0.0000009536743164
 10
-287.5
 20
287.5
 30
37.0
 10
287.5
 20
-287.5
 30
37.0
 10
287.5
 20
-287.5
 30
-0.0000009536743164
 10
287.5
 20
287.5
 30
-0.0000009536743164
 10
287.5
 20
287.5
 30
37.0
 10
-287.5
 20
-287.5
 30
37.0
 10
-287.5
 20
-287.5
 30
-0.0000009536743164
 10
287.5
 20
-287.5
 30
-0.0000009536743164
 10
287.5
 20
-287.5
 30
37.0
 10
-287.5
 20
287.5
 30
37.0
 10
-287.5
 20
287.5
 30
-0.0000009536743164
 10
-287.5
 20
-287.5
 30
-0.0000009536743164
 10
-287.5
 20
-287.5
 30
37.0
 10
287.5
 20
287.5
 30
37.0
 10
-287.5
 20
287.5
 30
37.0
 10
-287.5
 20
-287.5
 30
37.0
 10
287.5
 20
-287.5
 30
37.0
 10
180.788833618164
 20
177.3096160888672
 30
-0.0000009536743164
 10
177.309585571289
 20
180.7888641357422
 30
-0.0000009536743164
 10
180.7207489013672
 20
184.2000122070312
 30
-4.700000762939453
 10
184.1999816894531
 20
180.7207794189453
 30
-4.700000762939453
 10
180.7888641357422
 20
-177.309585571289
 30
-0.0000009536743164
 10
180.788833618164
 20
177.3096160888672
 30
-0.0000009536743164
 10
184.1999816894531
 20
180.7207794189453
 30
-4.700000762939453
 10
184.2000122070312
 20
-180.7207489013672
 30
-4.700000762939453
 10
76.21114349365234
 20
177.3096008300781
 30
-0.0000009536743164
 10
72.79999542236328
 20
180.7207641601562
 30
-4.700000762939453
 10
76.27923583984375
 20
184.1999969482422
 30
-4.700000762939453
 10
79.69038391113281
 20
180.7888488769531
 30
-0.0000009536743164
 10
79.69038391113281
 20
180.7888488769531
 30
-0.0000009536743164
 10
76.27923583984375
 20
184.1999969482422
 30
-4.700000762939453
 10
180.7207489013672
 20
184.2000122070312
 30
-4.700000762939453
 10
177.309585571289
 20
180.7888641357422
 30
-0.0000009536743164
 10
48.80959701538086
 20
180.7888488769531
 30
-0.0000009536743164
 10
52.22074890136719
 20
184.1999969482422
 30
-4.700000762939453
 10
55.69999313354492
 20
180.7207641601562
 30
-4.700000762939453
 10
52.28884124755859
 20
177.3096008300781
 30
-0.0000009536743164
 10
52.28885650634765
 20
-177.3096008300781
 30
-0.0000009536743164
 10
52.28884124755859
 20
177.3096008300781
 30
-0.0000009536743164
 10
55.69999313354492
 20
180.7207641601562
 30
-4.700000762939453
 10
55.70000839233398
 20
-180.7207641601562
 30
-4.700000762939453
 10
-48.80961227416992
 20
180.7888488769531
 30
-0.0000009536743164
 10
-52.28885650634765
 20
177.3096008300781
 30
-0.0000009536743164
 10
-55.70000839233398
 20
180.7207641601562
 30
-4.700000762939453
 10
-52.22076416015625
 20
184.1999969482422
 30
-4.700000762939453
 10
-48.80961227416992
 20
180.7888488769531
 30
-0.0000009536743164
 10
-52.22076416015625
 20
184.1999969482422
 30
-4.700000762939453
 10
52.22074890136719
 20
184.1999969482422
 30
-4.700000762939453
 10
48.80959701538086
 20
180.7888488769531
 30
-0.0000009536743164
 10
-79.69039916992187
 20
180.7888488769531
 30
-0.0000009536743164
 10
-76.27925109863281
 20
184.1999969482422
 30
-4.700000762939453
 10
-72.80001068115234
 20
180.7207641601562
 30
-4.700000762939453
 10
-76.2111587524414
 20
177.3096008300781
 30
-0.0000009536743164
 10
-72.79999542236328
 20
-180.7207641601562
 30
-4.700000762939453
 10
-76.21114349365234
 20
-177.3096008300781
 30
-0.0000009536743164
 10
-76.2111587524414
 20
177.3096008300781
 30
-0.0000009536743164
 10
-72.80001068115234
 20
180.7207641601562
 30
-4.700000762939453
 10
-177.3096160888672
 20
180.788833618164
 30
-0.0000009536743164
 10
-180.7888641357422
 20
177.309585571289
 30
-0.0000009536743164
 10
-184.2000122070312
 20
180.7207489013672
 30
-4.700000762939453
 10
-180.7207794189453
 20
184.1999816894531
 30
-4.700000762939453
 10
-180.7207794189453
 20
184.1999816894531
 30
-4.700000762939453
 10
-76.27925109863281
 20
184.1999969482422
 30
-4.700000762939453
 10
-79.69039916992187
 20
180.7888488769531
 30
-0.0000009536743164
 10
-177.3096160888672
 20
180.788833618164
 30
-0.0000009536743164
 10
-180.788833618164
 20
-177.3096160888672
 30
-0.0000009536743164
 10
-177.309585571289
 20
-180.7888641357422
 30
-0.0000009536743164
 10
-180.7207489013672
 20
-184.2000122070312
 30
-4.700000762939453
 10
-184.1999816894531
 20
-180.7207794189453
 30
-4.700000762939453
 10
-180.788833618164
 20
-177.3096160888672
 30
-0.0000009536743164
 10
-184.1999816894531
 20
-180.7207794189453
 30
-4.700000762939453
 10
-184.2000122070312
 20
180.7207489013672
 30
-4.700000762939453
 10
-180.7888641357422
 20
177.309585571289
 30
-0.0000009536743164
 10
-79.69038391113281
 20
-180.7888488769531
 30
-0.0000009536743164
 10
-76.21114349365234
 20
-177.3096008300781
 30
-0.0000009536743164
 10
-72.79999542236328
 20
-180.7207641601562
 30
-4.700000762939453
 10
-76.27923583984375
 20
-184.1999969482422
 30
-4.700000762939453
 10
-76.27923583984375
 20
-184.1999969482422
 30
-4.700000762939453
 10
-180.7207489013672
 20
-184.2000122070312
 30
-4.700000762939453
 10
-177.309585571289
 20
-180.7888641357422
 30
-0.0000009536743164
 10
-79.69038391113281
 20
-180.7888488769531
 30
-0.0000009536743164
 10
48.80961227416992
 20
-180.7888488769531
 30
-0.0000009536743164
 10
52.28885650634765
 20
-177.3096008300781
 30
-0.0000009536743164
 10
55.70000839233398
 20
-180.7207641601562
 30
-4.700000762939453
 10
52.22076416015625
 20
-184.1999969482422
 30
-4.700000762939453
 10
-52.22074890136719
 20
-184.1999969482422
 30
-4.700000762939453
 10
-48.80959701538086
 20
-180.7888488769531
 30
-0.0000009536743164
 10
48.80961227416992
 20
-180.7888488769531
 30
-0.0000009536743164
 10
52.22076416015625
 20
-184.1999969482422
 30
-4.700000762939453
 10
-48.80959701538086
 20
-180.7888488769531
 30
-0.0000009536743164
 10
-52.22074890136719
 20
-184.1999969482422
 30
-4.700000762939453
 10
-55.69999313354492
 20
-180.7207641601562
 30
-4.700000762939453
 10
-52.28884124755859
 20
-177.3096008300781
 30
-0.0000009536743164
 10
-55.69999313354492
 20
-180.7207641601562
 30
-4.700000762939453
 10
-55.70000839233398
 20
180.7207641601562
 30
-4.700000762939453
 10
-52.28885650634765
 20
177.3096008300781
 30
-0.0000009536743164
 10
-52.28884124755859
 20
-177.3096008300781
 30
-0.0000009536743164
 10
79.69039916992187
 20
-180.7888488769531
 30
-0.0000009536743164
 10
76.27925109863281
 20
-184.1999969482422
 30
-4.700000762939453
 10
72.80001068115234
 20
-180.7207641601562
 30
-4.700000762939453
 10
76.2111587524414
 20
-177.3096008300781
 30
-0.0000009536743164
 10
72.80001068115234
 20
-180.7207641601562
 30
-4.700000762939453
 10
72.79999542236328
 20
180.7207641601562
 30
-4.700000762939453
 10
76.21114349365234
 20
177.3096008300781
 30
-0.0000009536743164
 10
76.2111587524414
 20
-177.3096008300781
 30
-0.0000009536743164
 10
180.7888641357422
 20
-177.309585571289
 30
-0.0000009536743164
 10
184.2000122070312
 20
-180.7207489013672
 30
-4.700000762939453
 10
180.7207794189453
 20
-184.1999816894531
 30
-4.700000762939453
 10
177.3096160888672
 20
-180.788833618164
 30
-0.0000009536743164
 10
180.7207794189453
 20
-184.1999816894531
 30
-4.700000762939453
 10
76.27925109863281
 20
-184.1999969482422
 30
-4.700000762939453
 10
79.69039916992187
 20
-180.7888488769531
 30
-0.0000009536743164
 10
177.3096160888672
 20
-180.788833618164
 30
-0.0000009536743164
 10
310.7493896484375
 20
-311.0
 30
-2.000000715255737
 10
310.5605773925781
 20
-310.8111877441406
 30
-4.700000762939453
 10
310.8111877441406
 20
-310.5605773925781
 30
-4.700000762939453
 10
311.0
 20
-310.7493896484375
 30
-2.000000715255737
 10
-310.7493896484375
 20
-311.0
 30
-2.000000715255737
 10
-310.5605773925781
 20
-310.8111877441406
 30
-4.700000762939453
 10
310.5605773925781
 20
-310.8111877441406
 30
-4.700000762939453
 10
310.7493896484375
 20
-311.0
 30
-2.000000715255737
 10
-307.5499877929687
 20
-307.7999877929688
 30
-2.000000715255737
 10
-311.0
 20
310.7493896484375
 30
-2.000000715255737
 10
-307.7999877929688
 20
-307.5499877929687
 30
-2.000000715255737
 10
-310.7493896484375
 20
311.0
 30
-2.000000715255737
 10
-307.7999877929688
 20
307.5499877929687
 30
-2.000000715255737
 10
310.7493896484375
 20
311.0
 30
-2.000000715255737
 10
-307.5499877929687
 20
307.7999877929688
 30
-2.000000715255737
 10
311.0
 20
310.7493896484375
 30
-2.000000715255737
 10
307.5499877929687
 20
307.7999877929688
 30
-2.000000715255737
 10
311.0
 20
-310.7493896484375
 30
-2.000000715255737
 10
307.7999877929688
 20
307.5499877929687
 30
-2.000000715255737
 10
310.7493896484375
 20
-311.0
 30
-2.000000715255737
 10
307.7999877929688
 20
-307.5499877929687
 30
-2.000000715255737
 10
-310.7493896484375
 20
-311.0
 30
-2.000000715255737
 10
307.5499877929687
 20
-307.7999877929688
 30
-2.000000715255737
 10
-311.0
 20
-310.7493896484375
 30
-2.000000715255737
 10
-310.5605773925781
 20
-310.8111877441406
 30
-4.700000762939453
 10
-310.7493896484375
 20
-311.0
 30
-2.000000715255737
 10
-311.0
 20
-310.7493896484375
 30
-2.000000715255737
 10
-310.8111877441406
 20
-310.5605773925781
 30
-4.700000762939453
 10
-311.0
 20
310.7493896484375
 30
-2.000000715255737
 10
-310.8111877441406
 20
310.5605773925781
 30
-4.700000762939453
 10
-310.8111877441406
 20
-310.5605773925781
 30
-4.700000762939453
 10
-311.0
 20
-310.7493896484375
 30
-2.000000715255737
 10
-310.8111877441406
 20
310.5605773925781
 30
-4.700000762939453
 10
-311.0
 20
310.7493896484375
 30
-2.000000715255737
 10
-310.7493896484375
 20
311.0
 30
-2.000000715255737
 10
-310.5605773925781
 20
310.8111877441406
 30
-4.700000762939453
 10
310.5605773925781
 20
310.8111877441406
 30
-4.700000762939453
 10
-310.5605773925781
 20
310.8111877441406
 30
-4.700000762939453
 10
-310.7493896484375
 20
311.0
 30
-2.000000715255737
 10
310.7493896484375
 20
311.0
 30
-2.000000715255737
 10
311.0
 20
310.7493896484375
 30
-2.000000715255737
 10
310.8111877441406
 20
310.5605773925781
 30
-4.700000762939453
 10
310.5605773925781
 20
310.8111877441406
 30
-4.700000762939453
 10
310.7493896484375
 20
311.0
 30
-2.000000715255737
 10
310.8111877441406
 20
310.5605773925781
 30
-4.700000762939453
 10
311.0
 20
310.7493896484375
 30
-2.000000715255737
 10
311.0
 20
-310.7493896484375
 30
-2.000000715255737
 10
310.8111877441406
 20
-310.5605773925781
 30
-4.700000762939453
 10
307.5499877929687
 20
307.7999877929688
 30
-2.000000715255737
 10
307.5499877929687
 20
307.7999877929688
 30
-0.0000009536743164
 10
307.7999877929688
 20
307.5499877929687
 30
-0.0000009536743164
 10
307.7999877929688
 20
307.5499877929687
 30
-2.000000715255737
 10
307.5499877929687
 20
-307.7999877929688
 30
-0.0000009536743164
 10
-307.5499877929687
 20
-307.7999877929688
 30
-0.0000009536743164
 10
287.5
 20
-287.5
 30
-0.0000009536743164
 10
-307.7999877929688
 20
-307.5499877929687
 30
-0.0000009536743164
 10
-307.7999877929688
 20
307.5499877929687
 30
-0.0000009536743164
 10
-287.5
 20
-287.5
 30
-0.0000009536743164
 10
-307.5499877929687
 20
307.7999877929688
 30
-0.0000009536743164
 10
307.5499877929687
 20
307.7999877929688
 30
-0.0000009536743164
 10
-287.5
 20
287.5
 30
-0.0000009536743164
 10
307.7999877929688
 20
307.5499877929687
 30
-0.0000009536743164
 10
307.7999877929688
 20
-307.5499877929687
 30
-0.0000009536743164
 10
287.5
 20
287.5
 30
-0.0000009536743164
 10
-307.5499877929687
 20
307.7999877929688
 30
-0.0000009536743164
 10
307.5499877929687
 20
307.7999877929688
 30
-0.0000009536743164
 10
307.5499877929687
 20
307.7999877929688
 30
-2.000000715255737
 10
-307.5499877929687
 20
307.7999877929688
 30
-2.000000715255737
 10
-307.7999877929688
 20
307.5499877929687
 30
-2.000000715255737
 10
-307.7999877929688
 20
307.5499877929687
 30
-0.0000009536743164
 10
-307.5499877929687
 20
307.7999877929688
 30
-0.0000009536743164
 10
-307.5499877929687
 20
307.7999877929688
 30
-2.000000715255737
 10
-307.5499877929687
 20
-307.7999877929688
 30
-2.000000715255737
 10
-307.5499877929687
 20
-307.7999877929688
 30
-0.0000009536743164
 10
-307.7999877929688
 20
-307.5499877929687
 30
-0.0000009536743164
 10
-307.7999877929688
 20
-307.5499877929687
 30
-2.000000715255737
 10
307.5499877929687
 20
-307.7999877929688
 30
-0.0000009536743164
 10
-307.5499877929687
 20
-307.7999877929688
 30
-0.0000009536743164
 10
-307.5499877929687
 20
-307.7999877929688
 30
-2.000000715255737
 10
307.5499877929687
 20
-307.7999877929688
 30
-2.000000715255737
 10
307.7999877929688
 20
-307.5499877929687
 30
-2.000000715255737
 10
307.7999877929688
 20
-307.5499877929687
 30
-0.0000009536743164
 10
307.5499877929687
 20
-307.7999877929688
 30
-0.0000009536743164
 10
307.5499877929687
 20
-307.7999877929688
 30
-2.000000715255737
 10
307.7999877929688
 20
-307.5499877929687
 30
-2.000000715255737
 10
307.7999877929688
 20
307.5499877929687
 30
-2.000000715255737
 10
307.7999877929688
 20
307.5499877929687
 30
-0.0000009536743164
 10
307.7999877929688
 20
-307.5499877929687
 30
-0.0000009536743164
 10
-307.7999877929688
 20
-307.5499877929687
 30
-0.0000009536743164
 10
-307.7999877929688
 20
307.5499877929687
 30
-0.0000009536743164
 10
-307.7999877929688
 20
307.5499877929687
 30
-2.000000715255737
 10
-307.7999877929688
 20
-307.5499877929687
 30
-2.000000715255737
 10
-310.8111877441406
 20
-310.5605773925781
 30
-4.700000762939453
 10
-184.2000122070312
 20
180.7207489013672
 30
-4.700000762939453
 10
-180.7207794189453
 20
184.1999816894531
 30
-4.700000762939453
 10
-310.8111877441406
 20
310.5605773925781
 30
-4.700000762939453
 10
-310.5605773925781
 20
310.8111877441406
 30
-4.700000762939453
 10
-76.27925109863281
 20
184.1999969482422
 30
-4.700000762939453
 10
-72.80001068115234
 20
180.7207641601562
 30
-4.700000762939453
 10
55.70000839233398
 20
-180.7207641601562
 30
-4.700000762939453
 10
72.79999542236328
 20
180.7207641601562
 30
-4.700000762939453
 10
-72.79999542236328
 20
-180.7207641601562
 30
-4.700000762939453
 10
-55.70000839233398
 20
180.7207641601562
 30
-4.700000762939453
 10
-184.1999816894531
 20
-180.7207794189453
 30
-4.700000762939453
 10
-310.5605773925781
 20
-310.8111877441406
 30
-4.700000762939453
 10
310.5605773925781
 20
-310.8111877441406
 30
-4.700000762939453
 10
-180.7207489013672
 20
-184.2000122070312
 30
-4.700000762939453
 10
-76.27923583984375
 20
-184.1999969482422
 30
-4.700000762939453
 10
310.8111877441406
 20
-310.5605773925781
 30
-4.700000762939453
 10
310.5605773925781
 20
310.8111877441406
 30
-4.700000762939453
 10
76.27923583984375
 20
184.1999969482422
 30
-4.700000762939453
 10
55.69999313354492
 20
180.7207641601562
 30
-4.700000762939453
 10
72.80001068115234
 20
-180.7207641601562
 30
-4.700000762939453
 10
52.22076416015625
 20
-184.1999969482422
 30
-4.700000762939453
 10
-52.22076416015625
 20
184.1999969482422
 30
-4.700000762939453
 10
52.22074890136719
 20
184.1999969482422
 30
-4.700000762939453
 10
180.7207489013672
 20
184.2000122070312
 30
-4.700000762939453
 10
184.1999816894531
 20
180.7207794189453
 30
-4.700000762939453
 10
310.8111877441406
 20
310.5605773925781
 30
-4.700000762939453
 10
184.2000122070312
 20
-180.7207489013672
 30
-4.700000762939453
 10
180.7207794189453
 20
-184.1999816894531
 30
-4.700000762939453
 10
76.27925109863281
 20
-184.1999969482422
 30
-4.700000762939453
 10
-55.69999313354492
 20
-180.7207641601562
 30
-4.700000762939453
 10
-52.22074890136719
 20
-184.1999969482422
 30
-4.700000762939453
 93
      688
 90
        3
 90
        4
 90
        0
 90
        1
 90
        3
 90
        5
 90
        2
 90
        3
 90
        3
 90
        5
 90
        4
 90
        2
 90
        3
 90
        6
 90
        4
 90
        5
 90
        3
 90
        7
 90
        4
 90
        6
 90
        3
 90
        0
 90
        4
 90
        7
 90
        3
 90
       12
 90
        8
 90
        9
 90
        3
 90
       13
 90
       10
 90
       11
 90
        3
 90
       13
 90
       12
 90
       10
 90
        3
 90
       14
 90
       12
 90
       13
 90
        3
 90
       15
 90
       12
 90
       14
 90
        3
 90
        8
 90
       12
 90
       15
 90
        3
 90
       22
 90
       16
 90
       17
 90
        3
 90
       20
 90
       18
 90
       19
 90
        3
 90
       23
 90
       18
 90
       20
 90
        3
 90
       23
 90
       21
 90
       18
 90
        3
 90
       23
 90
       22
 90
       21
 90
        3
 90
       16
 90
       22
 90
       23
 90
        3
 90
       26
 90
       24
 90
       25
 90
        3
 90
       24
 90
       26
 90
       27
 90
        3
 90
       30
 90
       28
 90
       29
 90
        3
 90
       28
 90
       30
 90
       31
 90
        3
 90
       34
 90
       32
 90
       33
 90
        3
 90
       32
 90
       34
 90
       35
 90
        3
 90
       38
 90
       36
 90
       37
 90
        3
 90
       36
 90
       38
 90
       39
 90
        3
 90
       42
 90
       40
 90
       41
 90
        3
 90
       40
 90
       42
 90
       43
 90
        3
 90
       46
 90
       44
 90
       45
 90
        3
 90
       44
 90
       46
 90
       47
 90
        3
 90
       50
 90
       48
 90
       49
 90
        3
 90
       48
 90
       50
 90
       51
 90
        3
 90
       54
 90
       52
 90
       53
 90
        3
 90
       52
 90
       54
 90
       55
 90
        3
 90
       58
 90
       56
 90
       57
 90
        3
 90
       56
 90
       58
 90
       59
 90
        3
 90
       62
 90
       60
 90
       61
 90
        3
 90
       60
 90
       62
 90
       63
 90
        3
 90
       66
 90
       64
 90
       65
 90
        3
 90
       64
 90
       66
 90
       67
 90
        3
 90
       70
 90
       68
 90
       69
 90
        3
 90
       68
 90
       70
 90
       71
 90
        3
 90
       74
 90
       72
 90
       73
 90
        3
 90
       72
 90
       74
 90
       75
 90
        3
 90
       78
 90
       76
 90
       77
 90
        3
 90
       76
 90
       78
 90
       79
 90
        3
 90
       82
 90
       80
 90
       81
 90
        3
 90
       80
 90
       82
 90
       83
 90
        3
 90
       86
 90
       84
 90
       85
 90
        3
 90
       84
 90
       86
 90
       87
 90
        3
 90
       90
 90
       88
 90
       89
 90
        3
 90
       88
 90
       90
 90
       91
 90
        3
 90
       94
 90
       92
 90
       93
 90
        3
 90
       92
 90
       94
 90
       95
 90
        3
 90
       98
 90
       96
 90
       97
 90
        3
 90
       96
 90
       98
 90
       99
 90
        3
 90
      102
 90
      100
 90
      101
 90
        3
 90
      100
 90
      102
 90
      103
 90
        3
 90
      106
 90
      104
 90
      105
 90
        3
 90
      104
 90
      106
 90
      107
 90
        3
 90
      110
 90
      108
 90
      109
 90
        3
 90
      108
 90
      110
 90
      111
 90
        3
 90
      114
 90
      112
 90
      113
 90
        3
 90
      112
 90
      114
 90
      115
 90
        3
 90
      118
 90
      116
 90
      117
 90
        3
 90
      116
 90
      118
 90
      119
 90
        3
 90
      122
 90
      120
 90
      121
 90
        3
 90
      120
 90
      122
 90
      123
 90
        3
 90
      126
 90
      124
 90
      125
 90
        3
 90
      124
 90
      126
 90
      127
 90
        3
 90
      130
 90
      128
 90
      129
 90
        3
 90
      128
 90
      130
 90
      131
 90
        3
 90
      134
 90
      132
 90
      133
 90
        3
 90
      132
 90
      134
 90
      135
 90
        3
 90
      138
 90
      136
 90
      137
 90
        3
 90
      136
 90
      138
 90
      139
 90
        3
 90
      142
 90
      140
 90
      141
 90
        3
 90
      140
 90
      142
 90
      143
 90
        3
 90
      146
 90
      144
 90
      145
 90
        3
 90
      144
 90
      146
 90
      147
 90
        3
 90
      163
 90
      148
 90
      150
 90
        3
 90
      150
 90
      149
 90
      163
 90
        3
 90
      152
 90
      149
 90
      150
 90
        3
 90
      152
 90
      151
 90
      149
 90
        3
 90
      154
 90
      151
 90
      152
 90
        3
 90
      154
 90
      153
 90
      151
 90
        3
 90
      156
 90
      153
 90
      154
 90
        3
 90
      156
 90
      155
 90
      153
 90
        3
 90
      158
 90
      155
 90
      156
 90
        3
 90
      158
 90
      157
 90
      155
 90
        3
 90
      160
 90
      157
 90
      158
 90
        3
 90
      160
 90
      159
 90
      157
 90
        3
 90
      162
 90
      159
 90
      160
 90
        3
 90
      162
 90
      161
 90
      159
 90
        3
 90
      148
 90
      161
 90
      162
 90
        3
 90
      148
 90
      163
 90
      161
 90
        3
 90
      166
 90
      164
 90
      165
 90
        3
 90
      164
 90
      166
 90
      167
 90
        3
 90
      170
 90
      168
 90
      169
 90
        3
 90
      168
 90
      170
 90
      171
 90
        3
 90
      174
 90
      172
 90
      173
 90
        3
 90
      172
 90
      174
 90
      175
 90
        3
 90
      178
 90
      176
 90
      177
 90
        3
 90
      176
 90
      178
 90
      179
 90
        3
 90
      182
 90
      180
 90
      181
 90
        3
 90
      180
 90
      182
 90
      183
 90
        3
 90
      186
 90
      184
 90
      185
 90
        3
 90
      184
 90
      186
 90
      187
 90
        3
 90
      190
 90
      188
 90
      189
 90
        3
 90
      188
 90
      190
 90
      191
 90
        3
 90
      202
 90
      194
 90
      192
 90
        3
 90
      194
 90
      193
 90
      192
 90
        3
 90
      197
 90
      193
 90
      194
 90
        3
 90
      197
 90
      195
 90
      193
 90
        3
 90
      197
 90
      196
 90
      195
 90
        3
 90
      200
 90
      196
 90
      197
 90
        3
 90
      200
 90
      198
 90
      196
 90
        3
 90
      200
 90
      199
 90
      198
 90
        3
 90
      203
 90
      199
 90
      200
 90
        3
 90
      203
 90
      201
 90
      199
 90
        3
 90
      203
 90
      202
 90
      201
 90
        3
 90
      194
 90
      202
 90
      203
 90
        3
 90
      206
 90
      204
 90
      205
 90
        3
 90
      204
 90
      206
 90
      207
 90
        3
 90
      210
 90
      208
 90
      209
 90
        3
 90
      208
 90
      210
 90
      211
 90
        3
 90
      214
 90
      212
 90
      213
 90
        3
 90
      212
 90
      214
 90
      215
 90
        3
 90
      218
 90
      216
 90
      217
 90
        3
 90
      216
 90
      218
 90
      219
 90
        3
 90
      222
 90
      220
 90
      221
 90
        3
 90
      220
 90
      222
 90
      223
 90
        3
 90
      226
 90
      224
 90
      225
 90
        3
 90
      224
 90
      226
 90
      227
 90
        3
 90
      230
 90
      228
 90
      229
 90
        3
 90
      228
 90
      230
 90
      231
 90
        3
 90
      248
 90
      253
 90
      261
 90
        3
 90
      235
 90
      243
 90
      232
 90
        3
 90
      235
 90
      233
 90
      243
 90
        3
 90
      235
 90
      234
 90
      233
 90
        3
 90
      236
 90
      234
 90
      235
 90
        3
 90
      249
 90
      234
 90
      236
 90
        3
 90
      249
 90
      237
 90
      234
 90
        3
 90
      249
 90
      238
 90
      237
 90
        3
 90
      240
 90
      239
 90
      251
 90
        3
 90
      252
 90
      239
 90
      240
 90
        3
 90
      242
 90
      241
 90
      238
 90
        3
 90
      262
 90
      241
 90
      242
 90
        3
 90
      246
 90
      232
 90
      243
 90
        3
 90
      246
 90
      244
 90
      232
 90
        3
 90
      246
 90
      245
 90
      244
 90
        3
 90
      247
 90
      245
 90
      246
 90
        3
 90
      241
 90
      245
 90
      247
 90
        3
 90
      241
 90
      248
 90
      245
 90
        3
 90
      258
 90
      238
 90
      249
 90
        3
 90
      251
 90
      250
 90
      240
 90
        3
 90
      255
 90
      250
 90
      251
 90
        3
 90
      261
 90
      239
 90
      252
 90
        3
 90
      261
 90
      253
 90
      239
 90
        3
 90
      238
 90
      254
 90
      242
 90
        3
 90
      258
 90
      254
 90
      238
 90
        3
 90
      258
 90
      255
 90
      254
 90
        3
 90
      258
 90
      250
 90
      255
 90
        3
 90
      258
 90
      256
 90
      250
 90
        3
 90
      258
 90
      257
 90
      256
 90
        3
 90
      248
 90
      257
 90
      258
 90
        3
 90
      248
 90
      259
 90
      257
 90
        3
 90
      248
 90
      260
 90
      259
 90
        3
 90
      248
 90
      261
 90
      260
 90
        3
 90
      263
 90
      241
 90
      262
 90
        3
 90
      263
 90
      248
 90
      241
 90
        3
 90
      253
 90
      248
 90
      263
 94
      390
 90
        0
 90
        4
 90
        0
 90
        1
 90
        1
 90
        4
 90
        2
 90
        5
 90
        2
 90
        3
 90
        3
 90
        5
 90
        4
 90
        5
 90
        2
 90
        4
 90
        4
 90
        6
 90
        5
 90
        6
 90
        4
 90
        7
 90
        6
 90
        7
 90
        0
 90
        7
 90
        8
 90
       12
 90
        8
 90
        9
 90
        9
 90
       12
 90
       10
 90
       13
 90
       10
 90
       11
 90
       11
 90
       13
 90
       12
 90
       13
 90
       10
 90
       12
 90
       12
 90
       14
 90
       13
 90
       14
 90
       12
 90
       15
 90
       14
 90
       15
 90
        8
 90
       15
 90
       16
 90
       22
 90
       16
 90
       17
 90
       17
 90
       22
 90
       18
 90
       20
 90
       18
 90
       19
 90
       19
 90
       20
 90
       18
 90
       23
 90
       20
 90
       23
 90
       21
 90
       23
 90
       18
 90
       21
 90
       22
 90
       23
 90
       21
 90
       22
 90
       16
 90
       23
 90
       24
 90
       26
 90
       24
 90
       25
 90
       25
 90
       26
 90
       26
 90
       27
 90
       24
 90
       27
 90
       28
 90
       30
 90
       28
 90
       29
 90
       29
 90
       30
 90
       30
 90
       31
 90
       28
 90
       31
 90
       32
 90
       34
 90
       32
 90
       33
 90
       33
 90
       34
 90
       34
 90
       35
 90
       32
 90
       35
 90
       36
 90
       38
 90
       36
 90
       37
 90
       37
 90
       38
 90
       38
 90
       39
 90
       36
 90
       39
 90
       40
 90
       42
 90
       40
 90
       41
 90
       41
 90
       42
 90
       42
 90
       43
 90
       40
 90
       43
 90
       44
 90
       46
 90
       44
 90
       45
 90
       45
 90
       46
 90
       46
 90
       47
 90
       44
 90
       47
 90
       48
 90
       50
 90
       48
 90
       49
 90
       49
 90
       50
 90
       50
 90
       51
 90
       48
 90
       51
 90
       52
 90
       54
 90
       52
 90
       53
 90
       53
 90
       54
 90
       54
 90
       55
 90
       52
 90
       55
 90
       56
 90
       58
 90
       56
 90
       57
 90
       57
 90
       58
 90
       58
 90
       59
 90
       56
 90
       59
 90
       60
 90
       62
 90
       60
 90
       61
 90
       61
 90
       62
 90
       62
 90
       63
 90
       60
 90
       63
 90
       64
 90
       66
 90
       64
 90
       65
 90
       65
 90
       66
 90
       66
 90
       67
 90
       64
 90
       67
 90
       68
 90
       70
 90
       68
 90
       69
 90
       69
 90
       70
 90
       70
 90
       71
 90
       68
 90
       71
 90
       72
 90
       74
 90
       72
 90
       73
 90
       73
 90
       74
 90
       74
 90
       75
 90
       72
 90
       75
 90
       76
 90
       78
 90
       76
 90
       77
 90
       77
 90
       78
 90
       78
 90
       79
 90
       76
 90
       79
 90
       80
 90
       82
 90
       80
 90
       81
 90
       81
 90
       82
 90
       82
 90
       83
 90
       80
 90
       83
 90
       84
 90
       86
 90
       84
 90
       85
 90
       85
 90
       86
 90
       86
 90
       87
 90
       84
 90
       87
 90
       88
 90
       90
 90
       88
 90
       89
 90
       89
 90
       90
 90
       90
 90
       91
 90
       88
 90
       91
 90
       92
 90
       94
 90
       92
 90
       93
 90
       93
 90
       94
 90
       94
 90
       95
 90
       92
 90
       95
 90
       96
 90
       98
 90
       96
 90
       97
 90
       97
 90
       98
 90
       98
 90
       99
 90
       96
 90
       99
 90
      100
 90
      102
 90
      100
 90
      101
 90
      101
 90
      102
 90
      102
 90
      103
 90
      100
 90
      103
 90
      104
 90
      106
 90
      104
 90
      105
 90
      105
 90
      106
 90
      106
 90
      107
 90
      104
 90
      107
 90
      108
 90
      110
 90
      108
 90
      109
 90
      109
 90
      110
 90
      110
 90
      111
 90
      108
 90
      111
 90
      112
 90
      114
 90
      112
 90
      113
 90
      113
 90
      114
 90
      114
 90
      115
 90
      112
 90
      115
 90
      116
 90
      118
 90
      116
 90
      117
 90
      117
 90
      118
 90
      118
 90
      119
 90
      116
 90
      119
 90
      120
 90
      122
 90
      120
 90
      121
 90
      121
 90
      122
 90
      122
 90
      123
 90
      120
 90
      123
 90
      124
 90
      126
 90
      124
 90
      125
 90
      125
 90
      126
 90
      126
 90
      127
 90
      124
 90
      127
 90
      128
 90
      130
 90
      128
 90
      129
 90
      129
 90
      130
 90
      130
 90
      131
 90
      128
 90
      131
 90
      132
 90
      134
 90
      132
 90
      133
 90
      133
 90
      134
 90
      134
 90
      135
 90
      132
 90
      135
 90
      136
 90
      138
 90
      136
 90
      137
 90
      137
 90
      138
 90
      138
 90
      139
 90
      136
 90
      139
 90
      140
 90
      142
 90
      140
 90
      141
 90
      141
 90
      142
 90
      142
 90
      143
 90
      140
 90
      143
 90
      144
 90
      146
 90
      144
 90
      145
 90
      145
 90
      146
 90
      146
 90
      147
 90
      144
 90
      147
 90
      148
 90
      163
 90
      148
 90
      150
 90
      150
 90
      163
 90
      149
 90
      150
 90
      149
 90
      163
 90
      149
 90
      152
 90
      150
 90
      152
 90
      151
 90
      152
 90
      149
 90
      151
 90
      151
 90
      154
 90
      152
 90
      154
 90
      153
 90
      154
 90
      151
 90
      153
 90
      153
 90
      156
 90
      154
 90
      156
 90
      155
 90
      156
 90
      153
 90
      155
 90
      155
 90
      158
 90
      156
 90
      158
 90
      157
 90
      158
 90
      155
 90
      157
 90
      157
 90
      160
 90
      158
 90
      160
 90
      159
 90
      160
 90
      157
 90
      159
 90
      159
 90
      162
 90
      160
 90
      162
 90
      161
 90
      162
 90
      159
 90
      161
 90
      148
 90
      161
 90
      148
 90
      162
 90
      161
 90
      163
 90
      164
 90
      166
 90
      164
 90
      165
 90
      165
 90
      166
 90
      166
 90
      167
 90
      164
 90
      167
 90
      168
 90
      170
 90
      168
 90
      169
 90
      169
 90
      170
 90
      170
 90
      171
 90
      168
 90
      171
 90
      172
 90
      174
 90
      172
 90
      173
 90
      173
 90
      174
 90
      174
 90
      175
 90
      172
 90
      175
 90
      176
 90
      178
 90
      176
 90
      177
 90
      177
 90
      178
 90
      178
 90
      179
 90
      176
 90
      179
 90
      180
 90
      182
 90
      180
 90
      181
 90
      181
 90
      182
 90
      182
 90
      183
 90
      180
 90
      183
 90
      184
 90
      186
 90
      184
 90
      185
 90
      185
 90
      186
 90
      186
 90
      187
 90
      184
 90
      187
 90
      188
 90
      190
 90
      188
 90
      189
 90
      189
 90
      190
 90
      190
 90
      191
 90
      188
 90
      191
 90
      194
 90
      202
 90
      192
 90
      194
 90
      192
 90
      202
 90
      193
 90
      194
 90
      192
 90
      193
 90
      193
 90
      197
 90
      194
 90
      197
 90
      195
 90
      197
 90
      193
 90
      195
 90
      196
 90
      197
 90
      195
 90
      196
 90
      196
 90
      200
 90
      197
 90
      200
 90
      198
 90
      200
 90
      196
 90
      198
 90
      199
 90
      200
 90
      198
 90
      199
 90
      199
 90
      203
 90
      200
 90
      203
 90
      201
 90
      203
 90
      199
 90
      201
 90
      202
 90
      203
 90
      201
 90
      202
 90
      194
 90
      203
 90
      204
 90
      206
 90
      204
 90
      205
 90
      205
 90
      206
 90
      206
 90
      207
 90
      204
 90
      207
 90
      208
 90
      210
 90
      208
 90
      209
 90
      209
 90
      210
 90
      210
 90
      211
 90
      208
 90
      211
 90
      212
 90
      214
 90
      212
 90
      213
 90
      213
 90
      214
 90
      214
 90
      215
 90
      212
 90
      215
 90
      216
 90
      218
 90
      216
 90
      217
 90
      217
 90
      218
 90
      218
 90
      219
 90
      216
 90
      219
 90
      220
 90
      222
 90
      220
 90
      221
 90
      221
 90
      222
 90
      222
 90
      223
 90
      220
 90
      223
 90
      224
 90
      226
 90
      224
 90
      225
 90
      225
 90
      226
 90
      226
 90
      227
 90
      224
 90
      227
 90
      228
 90
      230
 90
      228
 90
      229
 90
      229
 90
      230
 90
      230
 90
      231
 90
      228
 90
      231
 90
      248
 90
      253
 90
      253
 90
      261
 90
      248
 90
      261
 90
      235
 90
      243
 90
      232
 90
      243
 90
      232
 90
      235
 90
      233
 90
      235
 90
      233
 90
      243
 90
      234
 90
      235
 90
      233
 90
      234
 90
      234
 90
      236
 90
      235
 90
      236
 90
      234
 90
      249
 90
      236
 90
      249
 90
      237
 90
      249
 90
      234
 90
      237
 90
      238
 90
      249
 90
      237
 90
      238
 90
      239
 90
      240
 90
      239
 90
      251
 90
      240
 90
      251
 90
      239
 90
      252
 90
      240
 90
      252
 90
      241
 90
      242
 90
      238
 90
      241
 90
      238
 90
      242
 90
      241
 90
      262
 90
      242
 90
      262
 90
      232
 90
      246
 90
      243
 90
      246
 90
      244
 90
      246
 90
      232
 90
      244
 90
      245
 90
      246
 90
      244
 90
      245
 90
      245
 90
      247
 90
      246
 90
      247
 90
      241
 90
      245
 90
      241
 90
      247
 90
      241
 90
      248
 90
      245
 90
      248
 90
      238
 90
      258
 90
      249
 90
      258
 90
      250
 90
      251
 90
      240
 90
      250
 90
      250
 90
      255
 90
      251
 90
      255
 90
      239
 90
      261
 90
      252
 90
      261
 90
      239
 90
      253
 90
      238
 90
      254
 90
      242
 90
      254
 90
      254
 90
      258
 90
      255
 90
      258
 90
      254
 90
      255
 90
      250
 90
      258
 90
      256
 90
      258
 90
      250
 90
      256
 90
      257
 90
      258
 90
      256
 90
      257
 90
      248
 90
      257
 90
      248
 90
      258
 90
      248
 90
      259
 90
      257
 90
      259
 90
      248
 90
      260
 90
      259
 90
      260
 90
      260
 90
      261
 90
      241
 90
      263
 90
      262
 90
      263
 90
      248
 90
      263
 90
      253
 90
      263
 95
      390
140
0.0
140
0.0
140
0.0
140
0.0
140
0.0
140
0.0
140
0.0
140
0.0
140
0.0
140
0.0
140
0.0
140
0.0
140
0.0
140
0.0
140
0.0
140
0.0
140
0.0
140
0.0
140
0.0
140
0.0
140
0.0
140
0.0
140
0.0
140
0.0
140
0.0
140
0.0
140
0.0
140
0.0
140
0.0
140
0.0
140
0.0
140
0.0
140
0.0
140
0.0
140
0.0
140
0.0
140
0.0
140
0.0
140
0.0
140
0.0
140
0.0
140
0.0
140
0.0
140
0.0
140
0.0
140
0.0
140
0.0
140
0.0
140
0.0
140
0.0
140
0.0
140
0.0
140
0.0
140
0.0
140
0.0
140
0.0
140
0.0
140
0.0
140
0.0
140
0.0
140
0.0
140
0.0
140
0.0
140
0.0
140
0.0
140
0.0
140
0.0
140
0.0
140
0.0
140
0.0
140
0.0
140
0.0
140
0.0
140
0.0
140
0.0
140
0.0
140
0.0
140
0.0
140
0.0
140
0.0
140
0.0
140
0.0
140
0.0
140
0.0
140
0.0
140
0.0
140
0.0
140
0.0
140
0.0
140
0.0
140
0.0
140
0.0
140
0.0
140
0.0
140
0.0
140
0.0
140
0.0
140
0.0
140
0.0
140
0.0
140
0.0
140
0.0
140
0.0
140
0.0
140
0.0
140
0.0
140
0.0
140
0.0
140
0.0
140
0.0
140
0.0
140
0.0
140
0.0
140
0.0
140
0.0
140
0.0
140
0.0
140
0.0
140
0.0
140
0.0
140
0.0
140
0.0
140
0.0
140
0.0
140
0.0
140
0.0
140
0.0
140
0.0
140
0.0
140
0.0
140
0.0
140
0.0
140
0.0
140
0.0
140
0.0
140
0.0
140
0.0
140
0.0
140
0.0
140
0.0
140
0.0
140
0.0
140
0.0
140
0.0
140
0.0
140
0.0
140
0.0
140
0.0
140
0.0
140
0.0
140
0.0
140
0.0
140
0.0
140
0.0
140
0.0
140
0.0
140
0.0
140
0.0
140
0.0
140
0.0
140
0.0
140
0.0
140
0.0
140
0.0
140
0.0
140
0.0
140
0.0
140
0.0
140
0.0
140
0.0
140
0.0
140
0.0
140
0.0
140
0.0
140
0.0
140
0.0
140
0.0
140
0.0
140
0.0
140
0.0
140
0.0
140
0.0
140
0.0
140
0.0
140
0.0
140
0.0
140
0.0
140
0.0
140
0.0
140
0.0
140
0.0
140
0.0
140
0.0
140
0.0
140
0.0
140
0.0
140
0.0
140
0.0
140
0.0
140
0.0
140
0.0
140
0.0
140
0.0
140
0.0
140
0.0
140
0.0
140
0.0
140
0.0
140
0.0
140
0.0
140
0.0
140
0.0
140
0.0
140
0.0
140
0.0
140
0.0
140
0.0
140
0.0
140
0.0
140
0.0
140
0.0
140
0.0
140
0.0
140
0.0
140
0.0
140
0.0
140
0.0
140
0.0
140
0.0
140
0.0
140
0.0
140
0.0
140
0.0
140
0.0
140
0.0
140
0.0
140
0.0
140
0.0
140
0.0
140
0.0
140
0.0
140
0.0
140
0.0
140
0.0
140
0.0
140
0.0
140
0.0
140
0.0
140
0.0
140
0.0
140
0.0
140
0.0
140
0.0
140
0.0
140
0.0
140
0.0
140
0.0
140
0.0
140
0.0
140
0.0
140
0.0
140
0.0
140
0.0
140
0.0
140
0.0
140
0.0
140
0.0
140
0.0
140
0.0
140
0.0
140
0.0
140
0.0
140
0.0
140
0.0
140
0.0
140
0.0
140
0.0
140
0.0
140
0.0
140
0.0
140
0.0
140
0.0
140
0.0
140
0.0
140
0.0
140
0.0
140
0.0
140
0.0
140
0.0
140
0.0
140
0.0
140
0.0
140
0.0
140
0.0
140
0.0
140
0.0
140
0.0
140
0.0
140
0.0
140
0.0
140
0.0
140
0.0
140
0.0
140
0.0
140
0.0
140
0.0
140
0.0
140
0.0
140
0.0
140
0.0
140
0.0
140
0.0
140
0.0
140
0.0
140
0.0
140
0.0
140
0.0
140
0.0
140
0.0
140
0.0
140
0.0
140
0.0
140
0.0
140
0.0
140
0.0
140
0.0
140
0.0
140
0.0
140
0.0
140
0.0
140
0.0
140
0.0
140
0.0
140
0.0
140
0.0
140
0.0
140
0.0
140
0.0
140
0.0
140
0.0
140
0.0
140
0.0
140
0.0
140
0.0
140
0.0
140
0.0
140
0.0
140
0.0
140
0.0
140
0.0
140
0.0
140
0.0
140
0.0
140
0.0
140
0.0
140
0.0
140
0.0
140
0.0
140
0.0
140
0.0
140
0.0
140
0.0
140
0.0
140
0.0
140
0.0
140
0.0
140
0.0
140
0.0
140
0.0
140
0.0
140
0.0
140
0.0
140
0.0
140
0.0
140
0.0
140
0.0
140
0.0
140
0.0
140
0.0
140
0.0
140
0.0
140
0.0
140
0.0
140
0.0
140
0.0
140
0.0
140
0.0
140
0.0
140
0.0
140
0.0
 90
        0
  0
MESH
  5
FC
102
{ACAD_REACTORS
330
100
330
FF
102
}
330
1F
100
AcDbEntity
  8
Si90 Lampe weiss
 62
    18
420
        0
160
              4760
310
98120000840000000C00000013000000020000003C0000000600000002000000000000A066766640000000A0CCBC664000000000CDCC12C00000004000C066400000002033736640000000009A990DC00C000000130000000A0000003C0000000600000002000000000000A066766640000000A0CCBC664000000000CDCC12
310
C0000000A066766640000000A0CCBC6640000000009A990DC00C00000013000000120000003C0000000600000002000000000000A066766640000000A0CCBC6640000000009A990DC00000004000C066400000002033736640000000009A990DC00C000000130000001A0000003C00000006000000020000000000004000C0
310
66400000002033736640000000009A990DC00000004000C06640000000203373664000000000CDCC12C00C00000013000000220000003C0000000600000002000000000000A066766640000000A0CCBC664000000000CDCC12C00000004000C06640000000203373664000000000CDCC12C00C000000130000002A0000003C
310
0000000600000002000000000000C033535340000000E0CCBC6640000000009A990DC0000000A066766640000000A0CCBC664000000000CDCC12C00C00000013000000320000003C0000000600000002000000000000C033535340000000E0CCBC6640000000009A990DC0000000A066766640000000A0CCBC664000000000
310
9A990DC00C000000130000003A0000003C0000000600000002000000000000A066766640000000A0CCBC6640000000009A990DC0000000A066766640000000A0CCBC664000000000CDCC12C00C00000013000000420000003C0000000600000002000000000000A066766640000000A0CCBC664000000000CDCC12C0000000
310
C033535340000000E0CCBC664000000000CDCC12C00C000000130000004A0000003C0000000600000002000000000000C033535340000000E0CCBC6640000000009A990DC0000000C033535340000000E0CCBC664000000000CDCC12C00C00000013000000520000003C0000000600000002000000000000C0FFBF66400000
310
0060337366C000000000CDCC12C0000000C032535340000000A0CCBC66C000000000CDCC12C00C000000130000005A0000003C0000000600000002000000000000C0FFBF664000000060337366C000000000CDCC12C00000002066766640000000E0CCBC66C000000000CDCC12C00C00000013000000620000003C00000006
310
000000020000000000002066766640000000E0CCBC66C000000000CDCC12C0000000C032535340000000A0CCBC66C000000000CDCC12C00C000000130000006A0000003C00000006000000020000000000008000C05240000000603373664000000000CDCC12C0000000A066766640000000A0CCBC664000000000CDCC12C0
310
0C00000013000000720000003C00000006000000020000000000008000C05240000000603373664000000000CDCC12C0000000C033535340000000E0CCBC664000000000CDCC12C00C000000130000007A0000003C0000000600000002000000000000C033535340000000E0CCBC664000000000CDCC12C0000000A0667666
310
40000000A0CCBC664000000000CDCC12C00C00000013000000820000003C000000060000000200000000000080FFBF524000000020337366C000000000CDCC12C0000000A066766640000000A0CCBC664000000000CDCC12C00C000000130000008A0000003C00000006000000020000000000008000C05240000000603373
310
664000000000CDCC12C000000080FFBF524000000020337366C000000000CDCC12C00C00000013000000920000003C000000060000000200000000000080FFBF524000000020337366C000000000CDCC12C00000004000C06640000000203373664000000000CDCC12C00C000000130000009A0000003C0000000600000002
310
000000000000A066766640000000A0CCBC664000000000CDCC12C00000004000C06640000000203373664000000000CDCC12C00C00000013000000A20000003C0000000600000002000000000000C0FFBF664000000060337366C000000000CDCC12C000000080FFBF524000000020337366C000000000CDCC12C00C000000
310
13000000AA0000003C0000000600000002000000000000C0FFBF664000000060337366C000000000CDCC12C00000004000C06640000000203373664000000000CDCC12C00C00000013000000B20000003C000000060000000200000000000080FFBF524000000020337366C000000000CDCC12C0000000C032535340000000
310
A0CCBC66C000000000CDCC12C00C00000013000000BA0000003C00000006000000020000000000008000C05240000000603373664000000000CDCC12C0000000C033535340000000E0CCBC6640000000009A990DC00C00000013000000C20000003C00000006000000020000000000008000C0524000000060337366400000
310
0000CDCC12C00000008000C052400000006033736640000000009A990DC00C00000013000000CA0000003C00000006000000020000000000008000C052400000006033736640000000009A990DC0000000C033535340000000E0CCBC6640000000009A990DC00C00000013000000D20000003C000000060000000200000000
310
0000C033535340000000E0CCBC6640000000009A990DC0000000C033535340000000E0CCBC664000000000CDCC12C00C00000013000000DA0000003C00000006000000020000000000008000C05240000000603373664000000000CDCC12C0000000C033535340000000E0CCBC664000000000CDCC12C00C00000013000000
310
E20000003C000000060000000200000000000080FFBF524000000020337366C0000000009A990DC00000008000C05240000000603373664000000000CDCC12C00C00000013000000EA0000003C000000060000000200000000000080FFBF524000000020337366C0000000009A990DC00000008000C0524000000060337366
310
40000000009A990DC00C00000013000000F20000003C00000006000000020000000000008000C052400000006033736640000000009A990DC00000008000C05240000000603373664000000000CDCC12C00C00000013000000FA0000003C00000006000000020000000000008000C05240000000603373664000000000CDCC
310
12C000000080FFBF524000000020337366C000000000CDCC12C00C00000013000000020100003C000000060000000200000000000080FFBF524000000020337366C0000000009A990DC000000080FFBF524000000020337366C000000000CDCC12C00C000000130000000A0100003C0000000600000002000000000000C032
310
535340000000A0CCBC66C000000000CDCC12C000000080FFBF524000000020337366C0000000009A990DC00C00000013000000120100003C0000000600000002000000000000C032535340000000A0CCBC66C000000000CDCC12C0000000C032535340000000A0CCBC66C0000000009A990DC00C000000130000001A010000
310
3C0000000600000002000000000000C032535340000000A0CCBC66C0000000009A990DC000000080FFBF524000000020337366C0000000009A990DC00C00000013000000220100003C000000060000000200000000000080FFBF524000000020337366C0000000009A990DC000000080FFBF524000000020337366C0000000
310
00CDCC12C00C000000130000002A0100003C0000000600000002000000000000C032535340000000A0CCBC66C000000000CDCC12C000000080FFBF524000000020337366C000000000CDCC12C00C00000013000000320100003C00000006000000020000000000002066766640000000E0CCBC66C0000000009A990DC00000
310
00C032535340000000A0CCBC66C000000000CDCC12C00C000000130000003A0100003C00000006000000020000000000002066766640000000E0CCBC66C0000000009A990DC0000000C032535340000000A0CCBC66C0000000009A990DC00C00000013000000420100003C0000000600000002000000000000C03253534000
310
0000A0CCBC66C0000000009A990DC0000000C032535340000000A0CCBC66C000000000CDCC12C00C000000130000004A0100003C0000000600000002000000000000C032535340000000A0CCBC66C000000000CDCC12C00000002066766640000000E0CCBC66C000000000CDCC12C00C00000013000000520100003C000000
310
06000000020000000000002066766640000000E0CCBC66C0000000009A990DC00000002066766640000000E0CCBC66C000000000CDCC12C00C000000130000005A0100003C0000000600000002000000000000C0FFBF664000000060337366C000000000CDCC12C00000002066766640000000E0CCBC66C0000000009A990D
310
C00C00000013000000620100003C0000000600000002000000000000C0FFBF664000000060337366C000000000CDCC12C0000000C0FFBF664000000060337366C0000000009A990DC00C000000130000006A0100003C0000000600000002000000000000C0FFBF664000000060337366C0000000009A990DC0000000206676
310
6640000000E0CCBC66C0000000009A990DC00C00000013000000720100003C00000006000000020000000000002066766640000000E0CCBC66C0000000009A990DC00000002066766640000000E0CCBC66C000000000CDCC12C00C000000130000007A0100003C0000000600000002000000000000C0FFBF66400000006033
310
7366C000000000CDCC12C00000002066766640000000E0CCBC66C000000000CDCC12C00C00000013000000820100003C0000000600000002000000000000C0FFBF664000000060337366C000000000CDCC12C00000004000C066400000002033736640000000009A990DC00C000000130000008A0100003C00000006000000
310
02000000000000C0FFBF664000000060337366C000000000CDCC12C00000004000C06640000000203373664000000000CDCC12C00C00000013000000920100003C00000006000000020000000000004000C06640000000203373664000000000CDCC12C00000004000C066400000002033736640000000009A990DC00C0000
310
00130000009A0100003C00000006000000020000000000004000C066400000002033736640000000009A990DC0000000C0FFBF664000000060337366C0000000009A990DC00C00000013000000A20100003C0000000600000002000000000000C0FFBF664000000060337366C000000000CDCC12C0000000C0FFBF66400000
310
0060337366C0000000009A990DC00C00000013000000AA0100003C0000000600000002000000000000A066766640000000A0CCBC6640000000009A990DC00000008000C052400000006033736640000000009A990DC00C00000013000000B20100003C0000000600000002000000000000A066766640000000A0CCBC664000
310
0000009A990DC0000000C033535340000000E0CCBC6640000000009A990DC00C00000013000000BA0100003C0000000600000002000000000000C033535340000000E0CCBC6640000000009A990DC00000008000C052400000006033736640000000009A990DC00C00000013000000C20100003C0000000600000002000000
310
000000C032535340000000A0CCBC66C0000000009A990DC0000000C0FFBF664000000060337366C0000000009A990DC00C00000013000000CA0100003C0000000600000002000000000000C032535340000000A0CCBC66C0000000009A990DC00000002066766640000000E0CCBC66C0000000009A990DC00C000000130000
310
00D20100003C00000006000000020000000000002066766640000000E0CCBC66C0000000009A990DC0000000C0FFBF664000000060337366C0000000009A990DC00C00000013000000DA0100003C0000000600000002000000000000C032535340000000A0CCBC66C0000000009A990DC00000004000C06640000000203373
310
6640000000009A990DC00C00000013000000E20100003C0000000600000002000000000000C0FFBF664000000060337366C0000000009A990DC00000004000C066400000002033736640000000009A990DC00C00000013000000EA0100003C000000060000000200000000000080FFBF524000000020337366C0000000009A
310
990DC00000004000C066400000002033736640000000009A990DC00C00000013000000F20100003C0000000600000002000000000000C032535340000000A0CCBC66C0000000009A990DC000000080FFBF524000000020337366C0000000009A990DC00C00000013000000FA0100003C000000060000000200000000000080
310
00C052400000006033736640000000009A990DC00000004000C066400000002033736640000000009A990DC00C00000013000000020200003C000000060000000200000000000080FFBF524000000020337366C0000000009A990DC00000008000C052400000006033736640000000009A990DC00C000000130000000A0200
310
003C0000000600000002000000000000A066766640000000A0CCBC6640000000009A990DC00000004000C066400000002033736640000000009A990DC0
100
AcDbSubDMesh
 71
     2
 72
     0
 91
        0
 92
       48
 10
179.7000274658203
 20
181.8999786376953
 30
-4.700000762939453
 10
179.7000274658203
 20
181.8999786376953
 30
-3.700000762939453
 10
182.0000305175781
 20
179.5999908447265
 30
-3.700000762939453
 10
182.0000305175781
 20
179.5999908447265
 30
-4.700000762939453
 10
77.30003356933593
 20
181.9000091552734
 30
-3.700000762939453
 10
179.7000274658203
 20
181.8999786376953
 30
-3.700000762939453
 10
179.7000274658203
 20
181.8999786376953
 30
-4.700000762939453
 10
77.30003356933593
 20
181.9000091552734
 30
-4.700000762939453
 10
181.9999694824218
 20
-179.6000213623047
 30
-4.700000762939453
 10
179.699966430664
 20
-181.9000091552734
 30
-4.700000762939453
 10
75.00003051757812
 20
179.6000213623047
 30
-4.700000762939453
 10
77.30003356933593
 20
181.9000091552734
 30
-4.700000762939453
 10
74.99996948242188
 20
-179.5999908447265
 30
-4.700000762939453
 10
179.7000274658203
 20
181.8999786376953
 30
-4.700000762939453
 10
182.0000305175781
 20
179.5999908447265
 30
-4.700000762939453
 10
77.29997253417969
 20
-181.8999786376953
 30
-4.700000762939453
 10
75.00003051757812
 20
179.6000213623047
 30
-4.700000762939453
 10
75.00003051757812
 20
179.6000213623047
 30
-3.700000762939453
 10
77.30003356933593
 20
181.9000091552734
 30
-3.700000762939453
 10
77.30003356933593
 20
181.9000091552734
 30
-4.700000762939453
 10
74.99996948242188
 20
-179.5999908447265
 30
-3.700000762939453
 10
75.00003051757812
 20
179.6000213623047
 30
-3.700000762939453
 10
75.00003051757812
 20
179.6000213623047
 30
-4.700000762939453
 10
74.99996948242188
 20
-179.5999908447265
 30
-4.700000762939453
 10
77.29997253417969
 20
-181.8999786376953
 30
-4.700000762939453
 10
77.29997253417969
 20
-181.8999786376953
 30
-3.700000762939453
 10
74.99996948242188
 20
-179.5999908447265
 30
-3.700000762939453
 10
74.99996948242188
 20
-179.5999908447265
 30
-4.700000762939453
 10
179.699966430664
 20
-181.9000091552734
 30
-3.700000762939453
 10
77.29997253417969
 20
-181.8999786376953
 30
-3.700000762939453
 10
77.29997253417969
 20
-181.8999786376953
 30
-4.700000762939453
 10
179.699966430664
 20
-181.9000091552734
 30
-4.700000762939453
 10
181.9999694824218
 20
-179.6000213623047
 30
-4.700000762939453
 10
181.9999694824218
 20
-179.6000213623047
 30
-3.700000762939453
 10
179.699966430664
 20
-181.9000091552734
 30
-3.700000762939453
 10
179.699966430664
 20
-181.9000091552734
 30
-4.700000762939453
 10
181.9999694824218
 20
-179.6000213623047
 30
-4.700000762939453
 10
182.0000305175781
 20
179.5999908447265
 30
-4.700000762939453
 10
182.0000305175781
 20
179.5999908447265
 30
-3.700000762939453
 10
181.9999694824218
 20
-179.6000213623047
 30
-3.700000762939453
 10
179.7000274658203
 20
181.8999786376953
 30
-3.700000762939453
 10
77.30003356933593
 20
181.9000091552734
 30
-3.700000762939453
 10
77.29997253417969
 20
-181.8999786376953
 30
-3.700000762939453
 10
179.699966430664
 20
-181.9000091552734
 30
-3.700000762939453
 10
181.9999694824218
 20
-179.6000213623047
 30
-3.700000762939453
 10
74.99996948242188
 20
-179.5999908447265
 30
-3.700000762939453
 10
75.00003051757812
 20
179.6000213623047
 30
-3.700000762939453
 10
182.0000305175781
 20
179.5999908447265
 30
-3.700000762939453
 93
      112
 90
        3
 90
        2
 90
        0
 90
        1
 90
        3
 90
        0
 90
        2
 90
        3
 90
        3
 90
        6
 90
        4
 90
        5
 90
        3
 90
        4
 90
        6
 90
        7
 90
        3
 90
       15
 90
        8
 90
        9
 90
        3
 90
       13
 90
       10
 90
       11
 90
        3
 90
       13
 90
       12
 90
       10
 90
        3
 90
       14
 90
       12
 90
       13
 90
        3
 90
        8
 90
       12
 90
       14
 90
        3
 90
        8
 90
       15
 90
       12
 90
        3
 90
       18
 90
       16
 90
       17
 90
        3
 90
       16
 90
       18
 90
       19
 90
        3
 90
       22
 90
       20
 90
       21
 90
        3
 90
       20
 90
       22
 90
       23
 90
        3
 90
       26
 90
       24
 90
       25
 90
        3
 90
       24
 90
       26
 90
       27
 90
        3
 90
       30
 90
       28
 90
       29
 90
        3
 90
       28
 90
       30
 90
       31
 90
        3
 90
       34
 90
       32
 90
       33
 90
        3
 90
       32
 90
       34
 90
       35
 90
        3
 90
       38
 90
       36
 90
       37
 90
        3
 90
       36
 90
       38
 90
       39
 90
        3
 90
       46
 90
       40
 90
       41
 90
        3
 90
       44
 90
       42
 90
       43
 90
        3
 90
       47
 90
       42
 90
       44
 90
        3
 90
       47
 90
       45
 90
       42
 90
        3
 90
       47
 90
       46
 90
       45
 90
        3
 90
       40
 90
       46
 90
       47
 94
       66
 90
        0
 90
        2
 90
        0
 90
        1
 90
        1
 90
        2
 90
        2
 90
        3
 90
        0
 90
        3
 90
        4
 90
        6
 90
        4
 90
        5
 90
        5
 90
        6
 90
        6
 90
        7
 90
        4
 90
        7
 90
        8
 90
       15
 90
        8
 90
        9
 90
        9
 90
       15
 90
       10
 90
       13
 90
       10
 90
       11
 90
       11
 90
       13
 90
       12
 90
       13
 90
       10
 90
       12
 90
       12
 90
       14
 90
       13
 90
       14
 90
        8
 90
       12
 90
        8
 90
       14
 90
       12
 90
       15
 90
       16
 90
       18
 90
       16
 90
       17
 90
       17
 90
       18
 90
       18
 90
       19
 90
       16
 90
       19
 90
       20
 90
       22
 90
       20
 90
       21
 90
       21
 90
       22
 90
       22
 90
       23
 90
       20
 90
       23
 90
       24
 90
       26
 90
       24
 90
       25
 90
       25
 90
       26
 90
       26
 90
       27
 90
       24
 90
       27
 90
       28
 90
       30
 90
       28
 90
       29
 90
       29
 90
       30
 90
       30
 90
       31
 90
       28
 90
       31
 90
       32
 90
       34
 90
       32
 90
       33
 90
       33
 90
       34
 90
       34
 90
       35
 90
       32
 90
       35
 90
       36
 90
       38
 90
       36
 90
       37
 90
       37
 90
       38
 90
       38
 90
       39
 90
       36
 90
       39
 90
       40
 90
       46
 90
       40
 90
       41
 90
       41
 90
       46
 90
       42
 90
       44
 90
       42
 90
       43
 90
       43
 90
       44
 90
       42
 90
       47
 90
       44
 90
       47
 90
       45
 90
       47
 90
       42
 90
       45
 90
       46
 90
       47
 90
       45
 90
       46
 90
       40
 90
       47
 95
       66
140
0.0
140
0.0
140
0.0
140
0.0
140
0.0
140
0.0
140
0.0
140
0.0
140
0.0
140
0.0
140
0.0
140
0.0
140
0.0
140
0.0
140
0.0
140
0.0
140
0.0
140
0.0
140
0.0
140
0.0
140
0.0
140
0.0
140
0.0
140
0.0
140
0.0
140
0.0
140
0.0
140
0.0
140
0.0
140
0.0
140
0.0
140
0.0
140
0.0
140
0.0
140
0.0
140
0.0
140
0.0
140
0.0
140
0.0
140
0.0
140
0.0
140
0.0
140
0.0
140
0.0
140
0.0
140
0.0
140
0.0
140
0.0
140
0.0
140
0.0
140
0.0
140
0.0
140
0.0
140
0.0
140
0.0
140
0.0
140
0.0
140
0.0
140
0.0
140
0.0
140
0.0
140
0.0
140
0.0
140
0.0
140
0.0
140
0.0
 90
        0
  0
MESH
  5
FD
102
{ACAD_REACTORS
330
100
330
FF
102
}
330
1F
100
AcDbEntity
  8
Si90 Lampe weiss
 62
    18
420
        0
160
              4760
310
98120000840000000C00000013000000020000003C0000000600000002000000000000A09A994940000000A0CCBC664000000000CDCC12C00000000001C04A400000002033736640000000009A990DC00C000000130000000A0000003C0000000600000002000000000000A09A994940000000A0CCBC664000000000CDCC12
310
C0000000A09A994940000000A0CCBC6640000000009A990DC00C00000013000000120000003C0000000600000002000000000000A09A994940000000A0CCBC6640000000009A990DC00000000001C04A400000002033736640000000009A990DC00C000000130000001A0000003C00000006000000020000000000000001C0
310
4A400000002033736640000000009A990DC00000000001C04A40000000203373664000000000CDCC12C00C00000013000000220000003C0000000600000002000000000000A09A994940000000A0CCBC664000000000CDCC12C00000000001C04A40000000203373664000000000CDCC12C00C000000130000002A0000003C
310
0000000600000002000000000000A0989949C0000000E0CCBC6640000000009A990DC0000000A09A994940000000A0CCBC664000000000CDCC12C00C00000013000000320000003C0000000600000002000000000000A0989949C0000000E0CCBC6640000000009A990DC0000000A09A994940000000A0CCBC664000000000
310
9A990DC00C000000130000003A0000003C0000000600000002000000000000A09A994940000000A0CCBC6640000000009A990DC0000000A09A994940000000A0CCBC664000000000CDCC12C00C00000013000000420000003C0000000600000002000000000000A09A994940000000A0CCBC664000000000CDCC12C0000000
310
A0989949C0000000E0CCBC664000000000CDCC12C00C000000130000004A0000003C0000000600000002000000000000A0989949C0000000E0CCBC6640000000009A990DC0000000A0989949C0000000E0CCBC664000000000CDCC12C00C00000013000000520000003C000000060000000200000000000000FFBF4A400000
310
0060337366C000000000CDCC12C0000000A09A9949C0000000A0CCBC66C000000000CDCC12C00C000000130000005A0000003C000000060000000200000000000000FFBF4A4000000060337366C000000000CDCC12C0000000A098994940000000E0CCBC66C000000000CDCC12C00C00000013000000620000003C00000006
310
00000002000000000000A098994940000000E0CCBC66C000000000CDCC12C0000000A09A9949C0000000A0CCBC66C000000000CDCC12C00C000000130000006A0000003C000000060000000200000000000000FFBF4AC0000000603373664000000000CDCC12C0000000A09A994940000000A0CCBC664000000000CDCC12C0
310
0C00000013000000720000003C000000060000000200000000000000FFBF4AC0000000603373664000000000CDCC12C0000000A0989949C0000000E0CCBC664000000000CDCC12C00C000000130000007A0000003C0000000600000002000000000000A0989949C0000000E0CCBC664000000000CDCC12C0000000A09A9949
310
40000000A0CCBC664000000000CDCC12C00C00000013000000820000003C00000006000000020000000000000001C04AC000000020337366C000000000CDCC12C0000000A09A994940000000A0CCBC664000000000CDCC12C00C000000130000008A0000003C000000060000000200000000000000FFBF4AC0000000603373
310
664000000000CDCC12C00000000001C04AC000000020337366C000000000CDCC12C00C00000013000000920000003C00000006000000020000000000000001C04AC000000020337366C000000000CDCC12C00000000001C04A40000000203373664000000000CDCC12C00C000000130000009A0000003C0000000600000002
310
000000000000A09A994940000000A0CCBC664000000000CDCC12C00000000001C04A40000000203373664000000000CDCC12C00C00000013000000A20000003C000000060000000200000000000000FFBF4A4000000060337366C000000000CDCC12C00000000001C04AC000000020337366C000000000CDCC12C00C000000
310
13000000AA0000003C000000060000000200000000000000FFBF4A4000000060337366C000000000CDCC12C00000000001C04A40000000203373664000000000CDCC12C00C00000013000000B20000003C00000006000000020000000000000001C04AC000000020337366C000000000CDCC12C0000000A09A9949C0000000
310
A0CCBC66C000000000CDCC12C00C00000013000000BA0000003C000000060000000200000000000000FFBF4AC0000000603373664000000000CDCC12C0000000A0989949C0000000E0CCBC6640000000009A990DC00C00000013000000C20000003C000000060000000200000000000000FFBF4AC000000060337366400000
310
0000CDCC12C000000000FFBF4AC00000006033736640000000009A990DC00C00000013000000CA0000003C000000060000000200000000000000FFBF4AC00000006033736640000000009A990DC0000000A0989949C0000000E0CCBC6640000000009A990DC00C00000013000000D20000003C000000060000000200000000
310
0000A0989949C0000000E0CCBC6640000000009A990DC0000000A0989949C0000000E0CCBC664000000000CDCC12C00C00000013000000DA0000003C000000060000000200000000000000FFBF4AC0000000603373664000000000CDCC12C0000000A0989949C0000000E0CCBC664000000000CDCC12C00C00000013000000
310
E20000003C00000006000000020000000000000001C04AC000000020337366C0000000009A990DC000000000FFBF4AC0000000603373664000000000CDCC12C00C00000013000000EA0000003C00000006000000020000000000000001C04AC000000020337366C0000000009A990DC000000000FFBF4AC000000060337366
310
40000000009A990DC00C00000013000000F20000003C000000060000000200000000000000FFBF4AC00000006033736640000000009A990DC000000000FFBF4AC0000000603373664000000000CDCC12C00C00000013000000FA0000003C000000060000000200000000000000FFBF4AC0000000603373664000000000CDCC
310
12C00000000001C04AC000000020337366C000000000CDCC12C00C00000013000000020100003C00000006000000020000000000000001C04AC000000020337366C0000000009A990DC00000000001C04AC000000020337366C000000000CDCC12C00C000000130000000A0100003C0000000600000002000000000000A09A
310
9949C0000000A0CCBC66C000000000CDCC12C00000000001C04AC000000020337366C0000000009A990DC00C00000013000000120100003C0000000600000002000000000000A09A9949C0000000A0CCBC66C000000000CDCC12C0000000A09A9949C0000000A0CCBC66C0000000009A990DC00C000000130000001A010000
310
3C0000000600000002000000000000A09A9949C0000000A0CCBC66C0000000009A990DC00000000001C04AC000000020337366C0000000009A990DC00C00000013000000220100003C00000006000000020000000000000001C04AC000000020337366C0000000009A990DC00000000001C04AC000000020337366C0000000
310
00CDCC12C00C000000130000002A0100003C0000000600000002000000000000A09A9949C0000000A0CCBC66C000000000CDCC12C00000000001C04AC000000020337366C000000000CDCC12C00C00000013000000320100003C0000000600000002000000000000A098994940000000E0CCBC66C0000000009A990DC00000
310
00A09A9949C0000000A0CCBC66C000000000CDCC12C00C000000130000003A0100003C0000000600000002000000000000A098994940000000E0CCBC66C0000000009A990DC0000000A09A9949C0000000A0CCBC66C0000000009A990DC00C00000013000000420100003C0000000600000002000000000000A09A9949C000
310
0000A0CCBC66C0000000009A990DC0000000A09A9949C0000000A0CCBC66C000000000CDCC12C00C000000130000004A0100003C0000000600000002000000000000A09A9949C0000000A0CCBC66C000000000CDCC12C0000000A098994940000000E0CCBC66C000000000CDCC12C00C00000013000000520100003C000000
310
0600000002000000000000A098994940000000E0CCBC66C0000000009A990DC0000000A098994940000000E0CCBC66C000000000CDCC12C00C000000130000005A0100003C000000060000000200000000000000FFBF4A4000000060337366C000000000CDCC12C0000000A098994940000000E0CCBC66C0000000009A990D
310
C00C00000013000000620100003C000000060000000200000000000000FFBF4A4000000060337366C000000000CDCC12C000000000FFBF4A4000000060337366C0000000009A990DC00C000000130000006A0100003C000000060000000200000000000000FFBF4A4000000060337366C0000000009A990DC0000000A09899
310
4940000000E0CCBC66C0000000009A990DC00C00000013000000720100003C0000000600000002000000000000A098994940000000E0CCBC66C0000000009A990DC0000000A098994940000000E0CCBC66C000000000CDCC12C00C000000130000007A0100003C000000060000000200000000000000FFBF4A400000006033
310
7366C000000000CDCC12C0000000A098994940000000E0CCBC66C000000000CDCC12C00C00000013000000820100003C000000060000000200000000000000FFBF4A4000000060337366C000000000CDCC12C00000000001C04A400000002033736640000000009A990DC00C000000130000008A0100003C00000006000000
310
0200000000000000FFBF4A4000000060337366C000000000CDCC12C00000000001C04A40000000203373664000000000CDCC12C00C00000013000000920100003C00000006000000020000000000000001C04A40000000203373664000000000CDCC12C00000000001C04A400000002033736640000000009A990DC00C0000
310
00130000009A0100003C00000006000000020000000000000001C04A400000002033736640000000009A990DC000000000FFBF4A4000000060337366C0000000009A990DC00C00000013000000A20100003C000000060000000200000000000000FFBF4A4000000060337366C000000000CDCC12C000000000FFBF4A400000
310
0060337366C0000000009A990DC00C00000013000000AA0100003C0000000600000002000000000000A09A994940000000A0CCBC6640000000009A990DC000000000FFBF4AC00000006033736640000000009A990DC00C00000013000000B20100003C0000000600000002000000000000A09A994940000000A0CCBC664000
310
0000009A990DC0000000A0989949C0000000E0CCBC6640000000009A990DC00C00000013000000BA0100003C0000000600000002000000000000A0989949C0000000E0CCBC6640000000009A990DC000000000FFBF4AC00000006033736640000000009A990DC00C00000013000000C20100003C0000000600000002000000
310
000000A09A9949C0000000A0CCBC66C0000000009A990DC000000000FFBF4A4000000060337366C0000000009A990DC00C00000013000000CA0100003C0000000600000002000000000000A09A9949C0000000A0CCBC66C0000000009A990DC0000000A098994940000000E0CCBC66C0000000009A990DC00C000000130000
310
00D20100003C0000000600000002000000000000A098994940000000E0CCBC66C0000000009A990DC000000000FFBF4A4000000060337366C0000000009A990DC00C00000013000000DA0100003C0000000600000002000000000000A09A9949C0000000A0CCBC66C0000000009A990DC00000000001C04A40000000203373
310
6640000000009A990DC00C00000013000000E20100003C000000060000000200000000000000FFBF4A4000000060337366C0000000009A990DC00000000001C04A400000002033736640000000009A990DC00C00000013000000EA0100003C00000006000000020000000000000001C04AC000000020337366C0000000009A
310
990DC00000000001C04A400000002033736640000000009A990DC00C00000013000000F20100003C0000000600000002000000000000A09A9949C0000000A0CCBC66C0000000009A990DC00000000001C04AC000000020337366C0000000009A990DC00C00000013000000FA0100003C000000060000000200000000000000
310
FFBF4AC00000006033736640000000009A990DC00000000001C04A400000002033736640000000009A990DC00C00000013000000020200003C00000006000000020000000000000001C04AC000000020337366C0000000009A990DC000000000FFBF4AC00000006033736640000000009A990DC00C000000130000000A0200
310
003C0000000600000002000000000000A09A994940000000A0CCBC6640000000009A990DC00000000001C04A400000002033736640000000009A990DC0
100
AcDbSubDMesh
 71
     2
 72
     0
 91
        0
 92
       48
 10
51.20003128051758
 20
181.8999786376953
 30
-4.700000762939453
 10
51.20003128051758
 20
181.8999786376953
 30
-3.700000762939453
 10
53.50003051757813
 20
179.5999908447265
 30
-3.700000762939453
 10
53.50003051757813
 20
179.5999908447265
 30
-4.700000762939453
 10
-51.19997024536132
 20
181.9000091552734
 30
-3.700000762939453
 10
51.20003128051758
 20
181.8999786376953
 30
-3.700000762939453
 10
51.20003128051758
 20
181.8999786376953
 30
-4.700000762939453
 10
-51.19997024536132
 20
181.9000091552734
 30
-4.700000762939453
 10
53.49996948242187
 20
-179.6000213623047
 30
-4.700000762939453
 10
51.19997024536132
 20
-181.9000091552734
 30
-4.700000762939453
 10
-53.49996948242187
 20
179.6000213623047
 30
-4.700000762939453
 10
-51.19997024536132
 20
181.9000091552734
 30
-4.700000762939453
 10
-53.50003051757813
 20
-179.5999908447265
 30
-4.700000762939453
 10
51.20003128051758
 20
181.8999786376953
 30
-4.700000762939453
 10
53.50003051757813
 20
179.5999908447265
 30
-4.700000762939453
 10
-51.20003128051758
 20
-181.8999786376953
 30
-4.700000762939453
 10
-53.49996948242187
 20
179.6000213623047
 30
-4.700000762939453
 10
-53.49996948242187
 20
179.6000213623047
 30
-3.700000762939453
 10
-51.19997024536132
 20
181.9000091552734
 30
-3.700000762939453
 10
-51.19997024536132
 20
181.9000091552734
 30
-4.700000762939453
 10
-53.50003051757813
 20
-179.5999908447265
 30
-3.700000762939453
 10
-53.49996948242187
 20
179.6000213623047
 30
-3.700000762939453
 10
-53.49996948242187
 20
179.6000213623047
 30
-4.700000762939453
 10
-53.50003051757813
 20
-179.5999908447265
 30
-4.700000762939453
 10
-51.20003128051758
 20
-181.8999786376953
 30
-4.700000762939453
 10
-51.20003128051758
 20
-181.8999786376953
 30
-3.700000762939453
 10
-53.50003051757813
 20
-179.5999908447265
 30
-3.700000762939453
 10
-53.50003051757813
 20
-179.5999908447265
 30
-4.700000762939453
 10
51.19997024536132
 20
-181.9000091552734
 30
-3.700000762939453
 10
-51.20003128051758
 20
-181.8999786376953
 30
-3.700000762939453
 10
-51.20003128051758
 20
-181.8999786376953
 30
-4.700000762939453
 10
51.19997024536132
 20
-181.9000091552734
 30
-4.700000762939453
 10
53.49996948242187
 20
-179.6000213623047
 30
-4.700000762939453
 10
53.49996948242187
 20
-179.6000213623047
 30
-3.700000762939453
 10
51.19997024536132
 20
-181.9000091552734
 30
-3.700000762939453
 10
51.19997024536132
 20
-181.9000091552734
 30
-4.700000762939453
 10
53.49996948242187
 20
-179.6000213623047
 30
-4.700000762939453
 10
53.50003051757813
 20
179.5999908447265
 30
-4.700000762939453
 10
53.50003051757813
 20
179.5999908447265
 30
-3.700000762939453
 10
53.49996948242187
 20
-179.6000213623047
 30
-3.700000762939453
 10
51.20003128051758
 20
181.8999786376953
 30
-3.700000762939453
 10
-51.19997024536132
 20
181.9000091552734
 30
-3.700000762939453
 10
-51.20003128051758
 20
-181.8999786376953
 30
-3.700000762939453
 10
51.19997024536132
 20
-181.9000091552734
 30
-3.700000762939453
 10
53.49996948242187
 20
-179.6000213623047
 30
-3.700000762939453
 10
-53.50003051757813
 20
-179.5999908447265
 30
-3.700000762939453
 10
-53.49996948242187
 20
179.6000213623047
 30
-3.700000762939453
 10
53.50003051757813
 20
179.5999908447265
 30
-3.700000762939453
 93
      112
 90
        3
 90
        2
 90
        0
 90
        1
 90
        3
 90
        0
 90
        2
 90
        3
 90
        3
 90
        6
 90
        4
 90
        5
 90
        3
 90
        4
 90
        6
 90
        7
 90
        3
 90
       15
 90
        8
 90
        9
 90
        3
 90
       13
 90
       10
 90
       11
 90
        3
 90
       13
 90
       12
 90
       10
 90
        3
 90
       14
 90
       12
 90
       13
 90
        3
 90
        8
 90
       12
 90
       14
 90
        3
 90
        8
 90
       15
 90
       12
 90
        3
 90
       18
 90
       16
 90
       17
 90
        3
 90
       16
 90
       18
 90
       19
 90
        3
 90
       22
 90
       20
 90
       21
 90
        3
 90
       20
 90
       22
 90
       23
 90
        3
 90
       26
 90
       24
 90
       25
 90
        3
 90
       24
 90
       26
 90
       27
 90
        3
 90
       30
 90
       28
 90
       29
 90
        3
 90
       28
 90
       30
 90
       31
 90
        3
 90
       34
 90
       32
 90
       33
 90
        3
 90
       32
 90
       34
 90
       35
 90
        3
 90
       38
 90
       36
 90
       37
 90
        3
 90
       36
 90
       38
 90
       39
 90
        3
 90
       46
 90
       40
 90
       41
 90
        3
 90
       44
 90
       42
 90
       43
 90
        3
 90
       47
 90
       42
 90
       44
 90
        3
 90
       47
 90
       45
 90
       42
 90
        3
 90
       47
 90
       46
 90
       45
 90
        3
 90
       40
 90
       46
 90
       47
 94
       66
 90
        0
 90
        2
 90
        0
 90
        1
 90
        1
 90
        2
 90
        2
 90
        3
 90
        0
 90
        3
 90
        4
 90
        6
 90
        4
 90
        5
 90
        5
 90
        6
 90
        6
 90
        7
 90
        4
 90
        7
 90
        8
 90
       15
 90
        8
 90
        9
 90
        9
 90
       15
 90
       10
 90
       13
 90
       10
 90
       11
 90
       11
 90
       13
 90
       12
 90
       13
 90
       10
 90
       12
 90
       12
 90
       14
 90
       13
 90
       14
 90
        8
 90
       12
 90
        8
 90
       14
 90
       12
 90
       15
 90
       16
 90
       18
 90
       16
 90
       17
 90
       17
 90
       18
 90
       18
 90
       19
 90
       16
 90
       19
 90
       20
 90
       22
 90
       20
 90
       21
 90
       21
 90
       22
 90
       22
 90
       23
 90
       20
 90
       23
 90
       24
 90
       26
 90
       24
 90
       25
 90
       25
 90
       26
 90
       26
 90
       27
 90
       24
 90
       27
 90
       28
 90
       30
 90
       28
 90
       29
 90
       29
 90
       30
 90
       30
 90
       31
 90
       28
 90
       31
 90
       32
 90
       34
 90
       32
 90
       33
 90
       33
 90
       34
 90
       34
 90
       35
 90
       32
 90
       35
 90
       36
 90
       38
 90
       36
 90
       37
 90
       37
 90
       38
 90
       38
 90
       39
 90
       36
 90
       39
 90
       40
 90
       46
 90
       40
 90
       41
 90
       41
 90
       46
 90
       42
 90
       44
 90
       42
 90
       43
 90
       43
 90
       44
 90
       42
 90
       47
 90
       44
 90
       47
 90
       45
 90
       47
 90
       42
 90
       45
 90
       46
 90
       47
 90
       45
 90
       46
 90
       40
 90
       47
 95
       66
140
0.0
140
0.0
140
0.0
140
0.0
140
0.0
140
0.0
140
0.0
140
0.0
140
0.0
140
0.0
140
0.0
140
0.0
140
0.0
140
0.0
140
0.0
140
0.0
140
0.0
140
0.0
140
0.0
140
0.0
140
0.0
140
0.0
140
0.0
140
0.0
140
0.0
140
0.0
140
0.0
140
0.0
140
0.0
140
0.0
140
0.0
140
0.0
140
0.0
140
0.0
140
0.0
140
0.0
140
0.0
140
0.0
140
0.0
140
0.0
140
0.0
140
0.0
140
0.0
140
0.0
140
0.0
140
0.0
140
0.0
140
0.0
140
0.0
140
0.0
140
0.0
140
0.0
140
0.0
140
0.0
140
0.0
140
0.0
140
0.0
140
0.0
140
0.0
140
0.0
140
0.0
140
0.0
140
0.0
140
0.0
140
0.0
140
0.0
 90
        0
  0
MESH
  5
FE
102
{ACAD_REACTORS
330
100
330
FF
102
}
330
1F
100
AcDbEntity
  8
Si90 Lampe weiss
 62
    18
420
        0
160
              4760
310
98120000840000000C00000013000000020000003C0000000600000002000000000000C0325353C0000000A0CCBC664000000000CDCC12C000000080FFBF52C00000002033736640000000009A990DC00C000000130000000A0000003C0000000600000002000000000000C0325353C0000000A0CCBC664000000000CDCC12
310
C0000000C0325353C0000000A0CCBC6640000000009A990DC00C00000013000000120000003C0000000600000002000000000000C0325353C0000000A0CCBC6640000000009A990DC000000080FFBF52C00000002033736640000000009A990DC00C000000130000001A0000003C000000060000000200000000000080FFBF
310
52C00000002033736640000000009A990DC000000080FFBF52C0000000203373664000000000CDCC12C00C00000013000000220000003C0000000600000002000000000000C0325353C0000000A0CCBC664000000000CDCC12C000000080FFBF52C0000000203373664000000000CDCC12C00C000000130000002A0000003C
310
000000060000000200000000000020667666C0000000E0CCBC6640000000009A990DC0000000C0325353C0000000A0CCBC664000000000CDCC12C00C00000013000000320000003C000000060000000200000000000020667666C0000000E0CCBC6640000000009A990DC0000000C0325353C0000000A0CCBC664000000000
310
9A990DC00C000000130000003A0000003C0000000600000002000000000000C0325353C0000000A0CCBC6640000000009A990DC0000000C0325353C0000000A0CCBC664000000000CDCC12C00C00000013000000420000003C0000000600000002000000000000C0325353C0000000A0CCBC664000000000CDCC12C0000000
310
20667666C0000000E0CCBC664000000000CDCC12C00C000000130000004A0000003C000000060000000200000000000020667666C0000000E0CCBC6640000000009A990DC000000020667666C0000000E0CCBC664000000000CDCC12C00C00000013000000520000003C00000006000000020000000000008000C052C00000
310
0060337366C000000000CDCC12C0000000A0667666C0000000A0CCBC66C000000000CDCC12C00C000000130000005A0000003C00000006000000020000000000008000C052C000000060337366C000000000CDCC12C0000000C0335353C0000000E0CCBC66C000000000CDCC12C00C00000013000000620000003C00000006
310
00000002000000000000C0335353C0000000E0CCBC66C000000000CDCC12C0000000A0667666C0000000A0CCBC66C000000000CDCC12C00C000000130000006A0000003C0000000600000002000000000000C0FFBF66C0000000603373664000000000CDCC12C0000000C0325353C0000000A0CCBC664000000000CDCC12C0
310
0C00000013000000720000003C0000000600000002000000000000C0FFBF66C0000000603373664000000000CDCC12C000000020667666C0000000E0CCBC664000000000CDCC12C00C000000130000007A0000003C000000060000000200000000000020667666C0000000E0CCBC664000000000CDCC12C0000000C0325353
310
C0000000A0CCBC664000000000CDCC12C00C00000013000000820000003C00000006000000020000000000004000C066C000000020337366C000000000CDCC12C0000000C0325353C0000000A0CCBC664000000000CDCC12C00C000000130000008A0000003C0000000600000002000000000000C0FFBF66C0000000603373
310
664000000000CDCC12C00000004000C066C000000020337366C000000000CDCC12C00C00000013000000920000003C00000006000000020000000000004000C066C000000020337366C000000000CDCC12C000000080FFBF52C0000000203373664000000000CDCC12C00C000000130000009A0000003C0000000600000002
310
000000000000C0325353C0000000A0CCBC664000000000CDCC12C000000080FFBF52C0000000203373664000000000CDCC12C00C00000013000000A20000003C00000006000000020000000000008000C052C000000060337366C000000000CDCC12C00000004000C066C000000020337366C000000000CDCC12C00C000000
310
13000000AA0000003C00000006000000020000000000008000C052C000000060337366C000000000CDCC12C000000080FFBF52C0000000203373664000000000CDCC12C00C00000013000000B20000003C00000006000000020000000000004000C066C000000020337366C000000000CDCC12C0000000A0667666C0000000
310
A0CCBC66C000000000CDCC12C00C00000013000000BA0000003C0000000600000002000000000000C0FFBF66C0000000603373664000000000CDCC12C000000020667666C0000000E0CCBC6640000000009A990DC00C00000013000000C20000003C0000000600000002000000000000C0FFBF66C000000060337366400000
310
0000CDCC12C0000000C0FFBF66C00000006033736640000000009A990DC00C00000013000000CA0000003C0000000600000002000000000000C0FFBF66C00000006033736640000000009A990DC000000020667666C0000000E0CCBC6640000000009A990DC00C00000013000000D20000003C000000060000000200000000
310
000020667666C0000000E0CCBC6640000000009A990DC000000020667666C0000000E0CCBC664000000000CDCC12C00C00000013000000DA0000003C0000000600000002000000000000C0FFBF66C0000000603373664000000000CDCC12C000000020667666C0000000E0CCBC664000000000CDCC12C00C00000013000000
310
E20000003C00000006000000020000000000004000C066C000000020337366C0000000009A990DC0000000C0FFBF66C0000000603373664000000000CDCC12C00C00000013000000EA0000003C00000006000000020000000000004000C066C000000020337366C0000000009A990DC0000000C0FFBF66C000000060337366
310
40000000009A990DC00C00000013000000F20000003C0000000600000002000000000000C0FFBF66C00000006033736640000000009A990DC0000000C0FFBF66C0000000603373664000000000CDCC12C00C00000013000000FA0000003C0000000600000002000000000000C0FFBF66C0000000603373664000000000CDCC
310
12C00000004000C066C000000020337366C000000000CDCC12C00C00000013000000020100003C00000006000000020000000000004000C066C000000020337366C0000000009A990DC00000004000C066C000000020337366C000000000CDCC12C00C000000130000000A0100003C0000000600000002000000000000A066
310
7666C0000000A0CCBC66C000000000CDCC12C00000004000C066C000000020337366C0000000009A990DC00C00000013000000120100003C0000000600000002000000000000A0667666C0000000A0CCBC66C000000000CDCC12C0000000A0667666C0000000A0CCBC66C0000000009A990DC00C000000130000001A010000
310
3C0000000600000002000000000000A0667666C0000000A0CCBC66C0000000009A990DC00000004000C066C000000020337366C0000000009A990DC00C00000013000000220100003C00000006000000020000000000004000C066C000000020337366C0000000009A990DC00000004000C066C000000020337366C0000000
310
00CDCC12C00C000000130000002A0100003C0000000600000002000000000000A0667666C0000000A0CCBC66C000000000CDCC12C00000004000C066C000000020337366C000000000CDCC12C00C00000013000000320100003C0000000600000002000000000000C0335353C0000000E0CCBC66C0000000009A990DC00000
310
00A0667666C0000000A0CCBC66C000000000CDCC12C00C000000130000003A0100003C0000000600000002000000000000C0335353C0000000E0CCBC66C0000000009A990DC0000000A0667666C0000000A0CCBC66C0000000009A990DC00C00000013000000420100003C0000000600000002000000000000A0667666C000
310
0000A0CCBC66C0000000009A990DC0000000A0667666C0000000A0CCBC66C000000000CDCC12C00C000000130000004A0100003C0000000600000002000000000000A0667666C0000000A0CCBC66C000000000CDCC12C0000000C0335353C0000000E0CCBC66C000000000CDCC12C00C00000013000000520100003C000000
310
0600000002000000000000C0335353C0000000E0CCBC66C0000000009A990DC0000000C0335353C0000000E0CCBC66C000000000CDCC12C00C000000130000005A0100003C00000006000000020000000000008000C052C000000060337366C000000000CDCC12C0000000C0335353C0000000E0CCBC66C0000000009A990D
310
C00C00000013000000620100003C00000006000000020000000000008000C052C000000060337366C000000000CDCC12C00000008000C052C000000060337366C0000000009A990DC00C000000130000006A0100003C00000006000000020000000000008000C052C000000060337366C0000000009A990DC0000000C03353
310
53C0000000E0CCBC66C0000000009A990DC00C00000013000000720100003C0000000600000002000000000000C0335353C0000000E0CCBC66C0000000009A990DC0000000C0335353C0000000E0CCBC66C000000000CDCC12C00C000000130000007A0100003C00000006000000020000000000008000C052C00000006033
310
7366C000000000CDCC12C0000000C0335353C0000000E0CCBC66C000000000CDCC12C00C00000013000000820100003C00000006000000020000000000008000C052C000000060337366C000000000CDCC12C000000080FFBF52C00000002033736640000000009A990DC00C000000130000008A0100003C00000006000000
310
020000000000008000C052C000000060337366C000000000CDCC12C000000080FFBF52C0000000203373664000000000CDCC12C00C00000013000000920100003C000000060000000200000000000080FFBF52C0000000203373664000000000CDCC12C000000080FFBF52C00000002033736640000000009A990DC00C0000
310
00130000009A0100003C000000060000000200000000000080FFBF52C00000002033736640000000009A990DC00000008000C052C000000060337366C0000000009A990DC00C00000013000000A20100003C00000006000000020000000000008000C052C000000060337366C000000000CDCC12C00000008000C052C00000
310
0060337366C0000000009A990DC00C00000013000000AA0100003C0000000600000002000000000000C0325353C0000000A0CCBC6640000000009A990DC0000000C0FFBF66C00000006033736640000000009A990DC00C00000013000000B20100003C0000000600000002000000000000C0325353C0000000A0CCBC664000
310
0000009A990DC000000020667666C0000000E0CCBC6640000000009A990DC00C00000013000000BA0100003C000000060000000200000000000020667666C0000000E0CCBC6640000000009A990DC0000000C0FFBF66C00000006033736640000000009A990DC00C00000013000000C20100003C0000000600000002000000
310
000000A0667666C0000000A0CCBC66C0000000009A990DC00000008000C052C000000060337366C0000000009A990DC00C00000013000000CA0100003C0000000600000002000000000000A0667666C0000000A0CCBC66C0000000009A990DC0000000C0335353C0000000E0CCBC66C0000000009A990DC00C000000130000
310
00D20100003C0000000600000002000000000000C0335353C0000000E0CCBC66C0000000009A990DC00000008000C052C000000060337366C0000000009A990DC00C00000013000000DA0100003C0000000600000002000000000000A0667666C0000000A0CCBC66C0000000009A990DC000000080FFBF52C0000000203373
310
6640000000009A990DC00C00000013000000E20100003C00000006000000020000000000008000C052C000000060337366C0000000009A990DC000000080FFBF52C00000002033736640000000009A990DC00C00000013000000EA0100003C00000006000000020000000000004000C066C000000020337366C0000000009A
310
990DC000000080FFBF52C00000002033736640000000009A990DC00C00000013000000F20100003C0000000600000002000000000000A0667666C0000000A0CCBC66C0000000009A990DC00000004000C066C000000020337366C0000000009A990DC00C00000013000000FA0100003C0000000600000002000000000000C0
310
FFBF66C00000006033736640000000009A990DC000000080FFBF52C00000002033736640000000009A990DC00C00000013000000020200003C00000006000000020000000000004000C066C000000020337366C0000000009A990DC0000000C0FFBF66C00000006033736640000000009A990DC00C000000130000000A0200
310
003C0000000600000002000000000000C0325353C0000000A0CCBC6640000000009A990DC000000080FFBF52C00000002033736640000000009A990DC0
100
AcDbSubDMesh
 71
     2
 72
     0
 91
        0
 92
       48
 10
-77.29997253417969
 20
181.8999786376953
 30
-4.700000762939453
 10
-77.29997253417969
 20
181.8999786376953
 30
-3.700000762939453
 10
-74.99996948242188
 20
179.5999908447265
 30
-3.700000762939453
 10
-74.99996948242188
 20
179.5999908447265
 30
-4.700000762939453
 10
-179.699966430664
 20
181.9000091552734
 30
-3.700000762939453
 10
-77.29997253417969
 20
181.8999786376953
 30
-3.700000762939453
 10
-77.29997253417969
 20
181.8999786376953
 30
-4.700000762939453
 10
-179.699966430664
 20
181.9000091552734
 30
-4.700000762939453
 10
-75.00003051757812
 20
-179.6000213623047
 30
-4.700000762939453
 10
-77.30003356933593
 20
-181.9000091552734
 30
-4.700000762939453
 10
-181.9999694824218
 20
179.6000213623047
 30
-4.700000762939453
 10
-179.699966430664
 20
181.9000091552734
 30
-4.700000762939453
 10
-182.0000305175781
 20
-179.5999908447265
 30
-4.700000762939453
 10
-77.29997253417969
 20
181.8999786376953
 30
-4.700000762939453
 10
-74.99996948242188
 20
179.5999908447265
 30
-4.700000762939453
 10
-179.7000274658203
 20
-181.8999786376953
 30
-4.700000762939453
 10
-181.9999694824218
 20
179.6000213623047
 30
-4.700000762939453
 10
-181.9999694824218
 20
179.6000213623047
 30
-3.700000762939453
 10
-179.699966430664
 20
181.9000091552734
 30
-3.700000762939453
 10
-179.699966430664
 20
181.9000091552734
 30
-4.700000762939453
 10
-182.0000305175781
 20
-179.5999908447265
 30
-3.700000762939453
 10
-181.9999694824218
 20
179.6000213623047
 30
-3.700000762939453
 10
-181.9999694824218
 20
179.6000213623047
 30
-4.700000762939453
 10
-182.0000305175781
 20
-179.5999908447265
 30
-4.700000762939453
 10
-179.7000274658203
 20
-181.8999786376953
 30
-4.700000762939453
 10
-179.7000274658203
 20
-181.8999786376953
 30
-3.700000762939453
 10
-182.0000305175781
 20
-179.5999908447265
 30
-3.700000762939453
 10
-182.0000305175781
 20
-179.5999908447265
 30
-4.700000762939453
 10
-77.30003356933593
 20
-181.9000091552734
 30
-3.700000762939453
 10
-179.7000274658203
 20
-181.8999786376953
 30
-3.700000762939453
 10
-179.7000274658203
 20
-181.8999786376953
 30
-4.700000762939453
 10
-77.30003356933593
 20
-181.9000091552734
 30
-4.700000762939453
 10
-75.00003051757812
 20
-179.6000213623047
 30
-4.700000762939453
 10
-75.00003051757812
 20
-179.6000213623047
 30
-3.700000762939453
 10
-77.30003356933593
 20
-181.9000091552734
 30
-3.700000762939453
 10
-77.30003356933593
 20
-181.9000091552734
 30
-4.700000762939453
 10
-75.00003051757812
 20
-179.6000213623047
 30
-4.700000762939453
 10
-74.99996948242188
 20
179.5999908447265
 30
-4.700000762939453
 10
-74.99996948242188
 20
179.5999908447265
 30
-3.700000762939453
 10
-75.00003051757812
 20
-179.6000213623047
 30
-3.700000762939453
 10
-77.29997253417969
 20
181.8999786376953
 30
-3.700000762939453
 10
-179.699966430664
 20
181.9000091552734
 30
-3.700000762939453
 10
-179.7000274658203
 20
-181.8999786376953
 30
-3.700000762939453
 10
-77.30003356933593
 20
-181.9000091552734
 30
-3.700000762939453
 10
-75.00003051757812
 20
-179.6000213623047
 30
-3.700000762939453
 10
-182.0000305175781
 20
-179.5999908447265
 30
-3.700000762939453
 10
-181.9999694824218
 20
179.6000213623047
 30
-3.700000762939453
 10
-74.99996948242188
 20
179.5999908447265
 30
-3.700000762939453
 93
      112
 90
        3
 90
        2
 90
        0
 90
        1
 90
        3
 90
        0
 90
        2
 90
        3
 90
        3
 90
        6
 90
        4
 90
        5
 90
        3
 90
        4
 90
        6
 90
        7
 90
        3
 90
       15
 90
        8
 90
        9
 90
        3
 90
       13
 90
       10
 90
       11
 90
        3
 90
       13
 90
       12
 90
       10
 90
        3
 90
       14
 90
       12
 90
       13
 90
        3
 90
        8
 90
       12
 90
       14
 90
        3
 90
        8
 90
       15
 90
       12
 90
        3
 90
       18
 90
       16
 90
       17
 90
        3
 90
       16
 90
       18
 90
       19
 90
        3
 90
       22
 90
       20
 90
       21
 90
        3
 90
       20
 90
       22
 90
       23
 90
        3
 90
       26
 90
       24
 90
       25
 90
        3
 90
       24
 90
       26
 90
       27
 90
        3
 90
       30
 90
       28
 90
       29
 90
        3
 90
       28
 90
       30
 90
       31
 90
        3
 90
       34
 90
       32
 90
       33
 90
        3
 90
       32
 90
       34
 90
       35
 90
        3
 90
       38
 90
       36
 90
       37
 90
        3
 90
       36
 90
       38
 90
       39
 90
        3
 90
       46
 90
       40
 90
       41
 90
        3
 90
       44
 90
       42
 90
       43
 90
        3
 90
       47
 90
       42
 90
       44
 90
        3
 90
       47
 90
       45
 90
       42
 90
        3
 90
       47
 90
       46
 90
       45
 90
        3
 90
       40
 90
       46
 90
       47
 94
       66
 90
        0
 90
        2
 90
        0
 90
        1
 90
        1
 90
        2
 90
        2
 90
        3
 90
        0
 90
        3
 90
        4
 90
        6
 90
        4
 90
        5
 90
        5
 90
        6
 90
        6
 90
        7
 90
        4
 90
        7
 90
        8
 90
       15
 90
        8
 90
        9
 90
        9
 90
       15
 90
       10
 90
       13
 90
       10
 90
       11
 90
       11
 90
       13
 90
       12
 90
       13
 90
       10
 90
       12
 90
       12
 90
       14
 90
       13
 90
       14
 90
        8
 90
       12
 90
        8
 90
       14
 90
       12
 90
       15
 90
       16
 90
       18
 90
       16
 90
       17
 90
       17
 90
       18
 90
       18
 90
       19
 90
       16
 90
       19
 90
       20
 90
       22
 90
       20
 90
       21
 90
       21
 90
       22
 90
       22
 90
       23
 90
       20
 90
       23
 90
       24
 90
       26
 90
       24
 90
       25
 90
       25
 90
       26
 90
       26
 90
       27
 90
       24
 90
       27
 90
       28
 90
       30
 90
       28
 90
       29
 90
       29
 90
       30
 90
       30
 90
       31
 90
       28
 90
       31
 90
       32
 90
       34
 90
       32
 90
       33
 90
       33
 90
       34
 90
       34
 90
       35
 90
       32
 90
       35
 90
       36
 90
       38
 90
       36
 90
       37
 90
       37
 90
       38
 90
       38
 90
       39
 90
       36
 90
       39
 90
       40
 90
       46
 90
       40
 90
       41
 90
       41
 90
       46
 90
       42
 90
       44
 90
       42
 90
       43
 90
       43
 90
       44
 90
       42
 90
       47
 90
       44
 90
       47
 90
       45
 90
       47
 90
       42
 90
       45
 90
       46
 90
       47
 90
       45
 90
       46
 90
       40
 90
       47
 95
       66
140
0.0
140
0.0
140
0.0
140
0.0
140
0.0
140
0.0
140
0.0
140
0.0
140
0.0
140
0.0
140
0.0
140
0.0
140
0.0
140
0.0
140
0.0
140
0.0
140
0.0
140
0.0
140
0.0
140
0.0
140
0.0
140
0.0
140
0.0
140
0.0
140
0.0
140
0.0
140
0.0
140
0.0
140
0.0
140
0.0
140
0.0
140
0.0
140
0.0
140
0.0
140
0.0
140
0.0
140
0.0
140
0.0
140
0.0
140
0.0
140
0.0
140
0.0
140
0.0
140
0.0
140
0.0
140
0.0
140
0.0
140
0.0
140
0.0
140
0.0
140
0.0
140
0.0
140
0.0
140
0.0
140
0.0
140
0.0
140
0.0
140
0.0
140
0.0
140
0.0
140
0.0
140
0.0
140
0.0
140
0.0
140
0.0
140
0.0
 90
        0
  0
ENDSEC
  0
SECTION
  2
OBJECTS
  0
DICTIONARY
  5
C
330
0
100
AcDbDictionary
281
     1
  3
ACAD_COLOR
350
DC
  3
ACAD_DETAILVIEWSTYLE
350
F5
  3
ACAD_GROUP
350
D
  3
ACAD_LAYOUT
350
1A
  3
ACAD_MATERIAL
350
AA
  3
ACAD_MLEADERSTYLE
350
F1
  3
ACAD_MLINESTYLE
350
17
  3
ACAD_PLOTSETTINGS
350
19
  3
ACAD_PLOTSTYLENAME
350
E
  3
ACAD_SCALELIST
350
DF
  3
ACAD_SECTIONVIEWSTYLE
350
F3
  3
ACAD_TABLESTYLE
350
DD
  3
ACAD_VISUALSTYLE
350
C3
  3
ACDB_RECOMPOSE_DATA
350
10D
  3
AcDbVariableDictionary
350
101
  0
DICTIONARY
  5
DC
102
{ACAD_REACTORS
330
C
102
}
330
C
100
AcDbDictionary
281
     1
  0
DICTIONARY
  5
F5
102
{ACAD_REACTORS
330
C
102
}
330
C
100
AcDbDictionary
281
     1
  3
Imperial24
350
F6
  0
DICTIONARY
  5
D
102
{ACAD_REACTORS
330
C
102
}
330
C
100
AcDbDictionary
281
     1
  3
51MT1-Taris-Square-625x625
350
FF
  3
51MT1-Taris-Square-625x625_measu
350
100
  0
DICTIONARY
  5
1A
102
{ACAD_REACTORS
330
C
102
}
330
C
100
AcDbDictionary
281
     1
  3
Layout1
350
1E
  3
Layout2
350
26
  3
Model
350
22
  0
DICTIONARY
  5
AA
102
{ACAD_REACTORS
330
C
102
}
330
C
100
AcDbDictionary
281
     1
  3
ByBlock
350
B3
  3
ByLayer
350
AB
  3
Global
350
BB
  0
DICTIONARY
  5
F1
102
{ACAD_REACTORS
330
C
102
}
330
C
100
AcDbDictionary
281
     1
  3
Standard
350
F2
  0
DICTIONARY
  5
17
102
{ACAD_REACTORS
330
C
102
}
330
C
100
AcDbDictionary
281
     1
  3
Standard
350
18
  0
DICTIONARY
  5
19
102
{ACAD_REACTORS
330
C
102
}
330
C
100
AcDbDictionary
281
     1
  0
ACDBDICTIONARYWDFLT
  5
E
102
{ACAD_REACTORS
330
C
102
}
330
C
100
AcDbDictionary
281
     1
  3
ByLayer
350
2D
  3
Normal
350
F
100
AcDbDictionaryWithDefault
340
F
  0
DICTIONARY
  5
DF
102
{ACAD_REACTORS
330
C
102
}
330
C
100
AcDbDictionary
281
     1
  3
A0
350
E0
  3
A1
350
E1
  3
A2
350
E2
  3
A3
350
E3
  3
A4
350
E4
  3
A5
350
E5
  3
A6
350
E6
  3
A7
350
E7
  3
A8
350
E8
  3
A9
350
E9
  3
B0
350
EA
  3
B1
350
EB
  3
B2
350
EC
  3
B3
350
ED
  3
B4
350
EE
  3
B5
350
EF
  3
B6
350
F0
  0
DICTIONARY
  5
F3
102
{ACAD_REACTORS
330
C
102
}
330
C
100
AcDbDictionary
281
     1
  3
Imperial24
350
F4
  0
DICTIONARY
  5
DD
102
{ACAD_REACTORS
330
C
102
}
330
C
100
AcDbDictionary
281
     1
  3
Standard
350
DE
  0
DICTIONARY
  5
C3
102
{ACAD_REACTORS
330
C
102
}
330
C
100
AcDbDictionary
281
     1
  3
2dWireframe
350
C9
  3
Basic
350
C8
  3
Brighten
350
CF
  3
ColorChange
350
D3
  3
Conceptual
350
CC
  3
Dim
350
CE
  3
EdgeColorOff
350
DB
  3
Facepattern
350
D2
  3
Flat
350
C4
  3
FlatWithEdges
350
C5
  3
Gouraud
350
C6
  3
GouraudWithEdges
350
C7
  3
Hidden
350
CB
  3
JitterOff
350
D9
  3
Linepattern
350
D1
  3
OverhangOff
350
DA
  3
Realistic
350
CD
  3
Shaded
350
D8
  3
Shaded with edges
350
D7
  3
Shades of Gray
350
D4
  3
Sketchy
350
D5
  3
Thicken
350
D0
  3
Wireframe
350
CA
  3
X-Ray
350
D6
  0
XRECORD
  5
10D
102
{ACAD_REACTORS
330
C
102
}
330
C
100
AcDbXrecord
280
     1
 90
        1
330
DE
  0
DICTIONARY
  5
101
102
{ACAD_REACTORS
330
C
102
}
330
C
100
AcDbDictionary
281
     1
  3
CANNOSCALE
350
107
  3
CMLEADERSTYLE
350
103
  3
CTABLESTYLE
350
102
  3
CVIEWDETAILSTYLE
350
104
  3
CVIEWSECTIONSTYLE
350
105
  3
LAYEREVAL
350
109
  3
LAYERNOTIFY
350
10A
  3
LIGHTINGUNITS
350
108
  3
MSLTSCALE
350
106
  0
ACDBDETAILVIEWSTYLE
  5
F6
102
{ACAD_XDICTIONARY
360
142
102
}
102
{ACAD_REACTORS
330
F5
102
}
330
F5
100
AcDbModelDocViewStyle
 70
     0
  3
Imperial24
290
     0
100
AcDbDetailViewStyle
 70
     0
 71
     0
 90
        3
 71
     1
340
11
 62
   256
 40
0.24
340
0
 62
   256
 40
0.24
300

 40
0.36
280
     3
 71
     2
340
16
 90
       25
 62
   256
 71
     3
340
11
 62
   256
 40
0.24
 90
        1
 40
0.75
 90
        1
300
%<\AcVar ViewType \f "%tc1">% %<\AcVar ViewDetailId>%\PSCALE %<\AcVar ViewScale \f "%sn">%
 71
     4
340
16
 90
       25
 62
   256
340
16
 90
       25
 62
   256
280
     0
  0
GROUP
  5
FF
102
{ACAD_REACTORS
330
D
102
}
330
D
100
AcDbGroup
300
51MT1-Taris-Square-625x625
 70
     0
 71
     1
340
FB
340
FC
340
FD
340
FE
  0
GROUP
  5
100
102
{ACAD_REACTORS
330
D
102
}
330
D
100
AcDbGroup
300
51MT1-Taris-Square-625x625_measu
 70
     0
 71
     1
340
FB
340
FC
340
FD
340
FE
  0
LAYOUT
  5
1E
102
{ACAD_REACTORS
330
1A
102
}
330
1A
100
AcDbPlotSettings
  1

  2
\\KTXNTBDC\CASF2PN1
  4

  6

 40
0.0
 41
0.0
 42
0.0
 43
0.0
 44
0.0
 45
0.0
 46
0.0
 47
0.0
 48
0.0
 49
0.0
140
0.0
141
0.0
142
1.0
143
1.0
 70
   688
 72
     0
 73
     0
 74
     5
  7

 75
    16
147
1.0
 76
     0
 77
     2
 78
   300
148
0.0
149
0.0
100
AcDbLayout
  1
Layout1
 70
     1
 71
     1
 10
0.0
 20
0.0
 11
12.0
 21
9.0
 12
0.0
 22
0.0
 32
0.0
 14
1.000000000000000E+20
 24
1.000000000000000E+20
 34
1.000000000000000E+20
 15
-1.000000000000000E+20
 25
-1.000000000000000E+20
 35
-1.000000000000000E+20
146
0.0
 13
0.0
 23
0.0
 33
0.0
 16
1.0
 26
0.0
 36
0.0
 17
0.0
 27
1.0
 37
0.0
 76
     0
330
1B
  0
LAYOUT
  5
26
102
{ACAD_REACTORS
330
1A
102
}
330
1A
100
AcDbPlotSettings
  1

  2
\\KTXNTBDC\CASF2PN1
  4

  6

 40
0.0
 41
0.0
 42
0.0
 43
0.0
 44
0.0
 45
0.0
 46
0.0
 47
0.0
 48
0.0
 49
0.0
140
0.0
141
0.0
142
1.0
143
1.0
 70
   688
 72
     0
 73
     0
 74
     5
  7

 75
    16
147
1.0
 76
     0
 77
     2
 78
   300
148
0.0
149
0.0
100
AcDbLayout
  1
Layout2
 70
     1
 71
     2
 10
0.0
 20
0.0
 11
12.0
 21
9.0
 12
0.0
 22
0.0
 32
0.0
 14
0.0
 24
0.0
 34
0.0
 15
0.0
 25
0.0
 35
0.0
146
0.0
 13
0.0
 23
0.0
 33
0.0
 16
1.0
 26
0.0
 36
0.0
 17
0.0
 27
1.0
 37
0.0
 76
     0
330
23
  0
LAYOUT
  5
22
102
{ACAD_REACTORS
330
1A
102
}
330
1A
100
AcDbPlotSettings
  1

  2
\\KTXNTBDC\CASF2PN1
  4

  6

 40
0.0
 41
0.0
 42
0.0
 43
0.0
 44
0.0
 45
0.0
 46
0.0
 47
0.0
 48
0.0
 49
0.0
140
0.0
141
0.0
142
1.0
143
1.0
 70
  1712
 72
     0
 73
     0
 74
     0
  7

 75
     0
147
1.0
 76
     0
 77
     2
 78
   300
148
0.0
149
0.0
100
AcDbLayout
  1
Model
 70
     1
 71
     0
 10
0.0
 20
0.0
 11
12.0
 21
9.0
 12
0.0
 22
0.0
 32
0.0
 14
0.0
 24
0.0
 34
0.0
 15
0.0
 25
0.0
 35
0.0
146
0.0
 13
0.0
 23
0.0
 33
0.0
 16
1.0
 26
0.0
 36
0.0
 17
0.0
 27
1.0
 37
0.0
 76
     0
330
1F
  0
MATERIAL
  5
B3
102
{ACAD_XDICTIONARY
360
B4
102
}
102
{ACAD_REACTORS
330
AA
102
}
330
AA
100
AcDbMaterial
  1
ByBlock
 72
     0
 43
0.0208333333333333
 43
0.0
 43
0.0
 43
0.0
 43
0.0
 43
0.0208333333333333
 43
0.0
 43
0.0
 43
0.0
 43
0.0
 43
1.0
 43
0.0
 43
0.0
 43
0.0
 43
0.0
 43
1.0
 77
     0
 47
0.0208333333333333
 47
0.0
 47
0.0
 47
0.0
 47
0.0
 47
0.0208333333333333
 47
0.0
 47
0.0
 47
0.0
 47
0.0
 47
1.0
 47
0.0
 47
0.0
 47
0.0
 47
0.0
 47
1.0
171
     0
 49
0.0208333333333333
 49
0.0
 49
0.0
 49
0.0
 49
0.0
 49
0.0208333333333333
 49
0.0
 49
0.0
 49
0.0
 49
0.0
 49
1.0
 49
0.0
 49
0.0
 49
0.0
 49
0.0
 49
1.0
175
     0
142
0.0208333333333333
142
0.0
142
0.0
142
0.0
142
0.0
142
0.0208333333333333
142
0.0
142
0.0
142
0.0
142
0.0
142
1.0
142
0.0
142
0.0
142
0.0
142
0.0
142
1.0
179
     0
144
0.0208333333333333
144
0.0
144
0.0
144
0.0
144
0.0
144
0.0208333333333333
144
0.0
144
0.0
144
0.0
144
0.0
144
1.0
144
0.0
144
0.0
144
0.0
144
0.0
144
1.0
147
0.0208333333333333
147
0.0
147
0.0
147
0.0
147
0.0
147
0.0208333333333333
147
0.0
147
0.0
147
0.0
147
0.0
147
1.0
147
0.0
147
0.0
147
0.0
147
0.0
147
1.0
  0
MATERIAL
  5
AB
102
{ACAD_XDICTIONARY
360
AC
102
}
102
{ACAD_REACTORS
330
AA
102
}
330
AA
100
AcDbMaterial
  1
ByLayer
 72
     0
 43
0.0208333333333333
 43
0.0
 43
0.0
 43
0.0
 43
0.0
 43
0.0208333333333333
 43
0.0
 43
0.0
 43
0.0
 43
0.0
 43
1.0
 43
0.0
 43
0.0
 43
0.0
 43
0.0
 43
1.0
 77
     0
 47
0.0208333333333333
 47
0.0
 47
0.0
 47
0.0
 47
0.0
 47
0.0208333333333333
 47
0.0
 47
0.0
 47
0.0
 47
0.0
 47
1.0
 47
0.0
 47
0.0
 47
0.0
 47
0.0
 47
1.0
171
     0
 49
0.0208333333333333
 49
0.0
 49
0.0
 49
0.0
 49
0.0
 49
0.0208333333333333
 49
0.0
 49
0.0
 49
0.0
 49
0.0
 49
1.0
 49
0.0
 49
0.0
 49
0.0
 49
0.0
 49
1.0
175
     0
142
0.0208333333333333
142
0.0
142
0.0
142
0.0
142
0.0
142
0.0208333333333333
142
0.0
142
0.0
142
0.0
142
0.0
142
1.0
142
0.0
142
0.0
142
0.0
142
0.0
142
1.0
179
     0
144
0.0208333333333333
144
0.0
144
0.0
144
0.0
144
0.0
144
0.0208333333333333
144
0.0
144
0.0
144
0.0
144
0.0
144
1.0
144
0.0
144
0.0
144
0.0
144
0.0
144
1.0
147
0.0208333333333333
147
0.0
147
0.0
147
0.0
147
0.0
147
0.0208333333333333
147
0.0
147
0.0
147
0.0
147
0.0
147
1.0
147
0.0
147
0.0
147
0.0
147
0.0
147
1.0
  0
MATERIAL
  5
BB
102
{ACAD_XDICTIONARY
360
BC
102
}
102
{ACAD_REACTORS
330
AA
102
}
330
AA
100
AcDbMaterial
  1
Global
 72
     0
 43
0.0208333333333333
 43
0.0
 43
0.0
 43
0.0
 43
0.0
 43
0.0208333333333333
 43
0.0
 43
0.0
 43
0.0
 43
0.0
 43
1.0
 43
0.0
 43
0.0
 43
0.0
 43
0.0
 43
1.0
 77
     0
 47
0.0208333333333333
 47
0.0
 47
0.0
 47
0.0
 47
0.0
 47
0.0208333333333333
 47
0.0
 47
0.0
 47
0.0
 47
0.0
 47
1.0
 47
0.0
 47
0.0
 47
0.0
 47
0.0
 47
1.0
171
     0
 49
0.0208333333333333
 49
0.0
 49
0.0
 49
0.0
 49
0.0
 49
0.0208333333333333
 49
0.0
 49
0.0
 49
0.0
 49
0.0
 49
1.0
 49
0.0
 49
0.0
 49
0.0
 49
0.0
 49
1.0
175
     0
142
0.0208333333333333
142
0.0
142
0.0
142
0.0
142
0.0
142
0.0208333333333333
142
0.0
142
0.0
142
0.0
142
0.0
142
1.0
142
0.0
142
0.0
142
0.0
142
0.0
142
1.0
179
     0
144
0.0208333333333333
144
0.0
144
0.0
144
0.0
144
0.0
144
0.0208333333333333
144
0.0
144
0.0
144
0.0
144
0.0
144
1.0
144
0.0
144
0.0
144
0.0
144
0.0
144
1.0
147
0.0208333333333333
147
0.0
147
0.0
147
0.0
147
0.0
147
0.0208333333333333
147
0.0
147
0.0
147
0.0
147
0.0
147
1.0
147
0.0
147
0.0
147
0.0
147
0.0
147
1.0
  0
MLEADERSTYLE
  5
F2
102
{ACAD_XDICTIONARY
360
13E
102
}
102
{ACAD_REACTORS
330
F1
102
}
330
F1
100
AcDbMLeaderStyle
179
     2
170
     2
171
     1
172
     0
 90
        2
 40
0.0
 41
0.0
173
     1
 91
-1056964608
340
14
 92
       -2
290
     1
 42
0.09
291
     1
 43
0.36
  3
Standard
 44
0.18
300

342
11
174
     1
178
     6
175
     1
176
     0
 93
-1056964608
 45
0.18
292
     0
297
     0
 46
0.18
 94
-1056964608
 47
1.0
 49
1.0
140
1.0
293
     1
141
0.0
294
     1
177
     0
142
1.0
295
     0
296
     0
143
0.125
271
     0
272
     9
273
     9
  0
MLINESTYLE
  5
18
102
{ACAD_REACTORS
330
17
102
}
330
17
100
AcDbMlineStyle
  2
STANDARD
 70
     0
  3

 62
   256
 51
90.0
 52
90.0
 71
     2
 49
0.5
 62
   256
  6
BYLAYER
 49
-0.5
 62
   256
  6
BYLAYER
  0
ACDBPLACEHOLDER
  5
2D
102
{ACAD_REACTORS
330
E
102
}
330
E
  0
ACDBPLACEHOLDER
  5
F
102
{ACAD_REACTORS
330
E
102
}
330
E
  0
SCALE
  5
E0
102
{ACAD_REACTORS
330
DF
102
}
330
DF
100
AcDbScale
 70
     0
300
1:1
140
1.0
141
1.0
290
     1
  0
SCALE
  5
E1
102
{ACAD_REACTORS
330
DF
102
}
330
DF
100
AcDbScale
 70
     0
300
1/128" = 1'-0"
140
0.0078125
141
12.0
290
     0
  0
SCALE
  5
E2
102
{ACAD_REACTORS
330
DF
102
}
330
DF
100
AcDbScale
 70
     0
300
1/64" = 1'-0"
140
0.015625
141
12.0
290
     0
  0
SCALE
  5
E3
102
{ACAD_REACTORS
330
DF
102
}
330
DF
100
AcDbScale
 70
     0
300
1/32" = 1'-0"
140
0.03125
141
12.0
290
     0
  0
SCALE
  5
E4
102
{ACAD_REACTORS
330
DF
102
}
330
DF
100
AcDbScale
 70
     0
300
1/16" = 1'-0"
140
0.0625
141
12.0
290
     0
  0
SCALE
  5
E5
102
{ACAD_REACTORS
330
DF
102
}
330
DF
100
AcDbScale
 70
     0
300
3/32" = 1'-0"
140
0.09375
141
12.0
290
     0
  0
SCALE
  5
E6
102
{ACAD_REACTORS
330
DF
102
}
330
DF
100
AcDbScale
 70
     0
300
1/8" = 1'-0"
140
0.125
141
12.0
290
     0
  0
SCALE
  5
E7
102
{ACAD_REACTORS
330
DF
102
}
330
DF
100
AcDbScale
 70
     0
300
3/16" = 1'-0"
140
0.1875
141
12.0
290
     0
  0
SCALE
  5
E8
102
{ACAD_REACTORS
330
DF
102
}
330
DF
100
AcDbScale
 70
     0
300
1/4" = 1'-0"
140
0.25
141
12.0
290
     0
  0
SCALE
  5
E9
102
{ACAD_REACTORS
330
DF
102
}
330
DF
100
AcDbScale
 70
     0
300
3/8" = 1'-0"
140
0.375
141
12.0
290
     0
  0
SCALE
  5
EA
102
{ACAD_REACTORS
330
DF
102
}
330
DF
100
AcDbScale
 70
     0
300
1/2" = 1'-0"
140
0.5
141
12.0
290
     0
  0
SCALE
  5
EB
102
{ACAD_REACTORS
330
DF
102
}
330
DF
100
AcDbScale
 70
     0
300
3/4" = 1'-0"
140
0.75
141
12.0
290
     0
  0
SCALE
  5
EC
102
{ACAD_REACTORS
330
DF
102
}
330
DF
100
AcDbScale
 70
     0
300
1" = 1'-0"
140
1.0
141
12.0
290
     0
  0
SCALE
  5
ED
102
{ACAD_REACTORS
330
DF
102
}
330
DF
100
AcDbScale
 70
     0
300
1-1/2" = 1'-0"
140
1.5
141
12.0
290
     0
  0
SCALE
  5
EE
102
{ACAD_REACTORS
330
DF
102
}
330
DF
100
AcDbScale
 70
     0
300
3" = 1'-0"
140
3.0
141
12.0
290
     0
  0
SCALE
  5
EF
102
{ACAD_REACTORS
330
DF
102
}
330
DF
100
AcDbScale
 70
     0
300
6" = 1'-0"
140
6.0
141
12.0
290
     0
  0
SCALE
  5
F0
102
{ACAD_REACTORS
330
DF
102
}
330
DF
100
AcDbScale
 70
     0
300
1'-0" = 1'-0"
140
12.0
141
12.0
290
     0
  0
ACDBSECTIONVIEWSTYLE
  5
F4
102
{ACAD_XDICTIONARY
360
140
102
}
102
{ACAD_REACTORS
330
F3
102
}
330
F3
100
AcDbModelDocViewStyle
 70
     0
  3
Imperial24
290
     0
100
AcDbSectionViewStyle
 70
     0
 71
     0
 90
       78
 71
     1
340
11
 62
   256
 40
0.24
340
0
340
0
 62
   256
 40
0.24
300
I, O, Q, S, X, Z
 40
0.48
 90
        3
 40
0.18
 90
        1
 71
     2
340
16
 90
       25
 62
   256
340
16
 90
       50
 62
   256
 40
0.24
 40
0.0
 40
0.24
 71
     3
340
11
 62
   256
 40
0.24
 90
        1
 40
0.75
 90
        1
300
%<\AcVar ViewType \f "%tc1">% %<\AcVar ViewSectionStartId>%-%<\AcVar ViewSectionEndId>%\PSCALE %<\AcVar ViewScale \f "%sn">%
 71
     4
 62
   256
 62
   257
300
ANSI31
 40
1.0
 90
        0
290
     0
290
     0
 90
        6
 40
0.0
 40
1.570796326794896
 40
0.2617993877991494
 40
1.308996938995747
 40
-0.2617993877991494
 40
1.832595714594046
  0
TABLESTYLE
  5
DE
102
{ACAD_XDICTIONARY
360
10B
102
}
102
{ACAD_REACTORS
330
DD
102
}
330
DD
100
AcDbTableStyle
280
     0
  3
Standard
 70
     0
 71
     0
 40
0.06
 41
0.06
280
     0
281
     0
  7
Standard
140
0.18
170
     2
 62
     0
 63
     7
283
     0
 90
      512
 91
        0
  1

274
    -2
284
     1
 64
     0
275
    -2
285
     1
 65
     0
276
    -2
286
     1
 66
     0
277
    -2
287
     1
 67
     0
278
    -2
288
     1
 68
     0
279
    -2
289
     1
 69
     0
  7
Standard
140
0.25
170
     5
 62
     0
 63
     7
283
     0
 90
      512
 91
        0
  1

274
    -2
284
     1
 64
     0
275
    -2
285
     1
 65
     0
276
    -2
286
     1
 66
     0
277
    -2
287
     1
 67
     0
278
    -2
288
     1
 68
     0
279
    -2
289
     1
 69
     0
  7
Standard
140
0.18
170
     5
 62
     0
 63
     7
283
     0
 90
      512
 91
        0
  1

274
    -2
284
     1
 64
     0
275
    -2
285
     1
 65
     0
276
    -2
286
     1
 66
     0
277
    -2
287
     1
 67
     0
278
    -2
288
     1
 68
     0
279
    -2
289
     1
 69
     0
  0
VISUALSTYLE
  5
C9
102
{ACAD_XDICTIONARY
360
118
102
}
102
{ACAD_REACTORS
330
C3
102
}
330
C3
100
AcDbVisualStyle
  2
2dWireframe
 70
     4
177
     2
291
     0
 71
     0
176
     1
 72
     2
176
     1
 73
     0
176
     1
 90
        0
176
     1
 40
0.6
176
     1
 41
30.0
176
     1
 63
     7
421
 16777215
176
     1
 74
     1
176
     1
 91
        4
176
     1
 64
     7
176
     1
 65
   257
176
     1
 75
     1
176
     1
175
     1
176
     1
 42
1.0
176
     1
 92
        0
176
     1
 66
   257
176
     1
 43
1.0
176
     1
 76
     1
176
     1
 77
     6
176
     1
 78
     2
176
     1
 67
     7
176
     1
 79
     5
176
     1
170
     0
176
     1
171
     0
176
     1
290
     0
176
     1
 93
        1
176
     1
 44
0.0
176
     1
173
     0
176
     1
1001
ACAD
1000
AcDbSavedByObjectVersion
1070
     0
  0
VISUALSTYLE
  5
C8
102
{ACAD_XDICTIONARY
360
116
102
}
102
{ACAD_REACTORS
330
C3
102
}
330
C3
100
AcDbVisualStyle
  2
Basic
 70
     7
177
     2
291
     1
 71
     1
176
     1
 72
     0
176
     1
 73
     1
176
     1
 90
        0
176
     1
 40
0.6
176
     1
 41
30.0
176
     1
 63
     7
421
 16777215
176
     1
 74
     0
176
     1
 91
        4
176
     1
 64
     7
176
     1
 65
   257
176
     1
 75
     1
176
     1
175
     1
176
     1
 42
1.0
176
     1
 92
        8
176
     1
 66
     7
176
     1
 43
1.0
176
     1
 76
     1
176
     1
 77
     6
176
     1
 78
     2
176
     1
 67
     7
176
     1
 79
     5
176
     1
170
     0
176
     1
171
     0
176
     1
290
     0
176
     1
 93
        1
176
     1
 44
0.0
176
     1
173
     0
176
     1
1001
ACAD
1000
AcDbSavedByObjectVersion
1070
     0
  0
VISUALSTYLE
  5
CF
102
{ACAD_XDICTIONARY
360
124
102
}
102
{ACAD_REACTORS
330
C3
102
}
330
C3
100
AcDbVisualStyle
  2
Brighten
 70
    12
177
     2
291
     1
 71
     2
176
     1
 72
     2
176
     1
 73
     0
176
     1
 90
        0
176
     1
 40
0.6
176
     1
 41
30.0
176
     1
 63
     7
421
 16777215
176
     1
 74
     1
176
     1
 91
        4
176
     1
 64
     7
176
     1
 65
   257
176
     1
 75
     1
176
     1
175
     1
176
     1
 42
1.0
176
     1
 92
        8
176
     1
 66
     7
176
     1
 43
1.0
176
     1
 76
     1
176
     1
 77
     6
176
     1
 78
     2
176
     1
 67
     7
176
     1
 79
     5
176
     1
170
     0
176
     1
171
     0
176
     1
290
     0
176
     1
 93
        1
176
     1
 44
50.0
176
     1
173
     0
176
     1
1001
ACAD
1000
AcDbSavedByObjectVersion
1070
     0
  0
VISUALSTYLE
  5
D3
102
{ACAD_XDICTIONARY
360
12C
102
}
102
{ACAD_REACTORS
330
C3
102
}
330
C3
100
AcDbVisualStyle
  2
ColorChange
 70
    16
177
     2
291
     1
 71
     2
176
     1
 72
     2
176
     1
 73
     3
176
     1
 90
        0
176
     1
 40
0.6
176
     1
 41
30.0
176
     1
 63
     8
421
  8421504
176
     1
 74
     1
176
     1
 91
        4
176
     1
 64
     7
176
     1
 65
   257
176
     1
 75
     1
176
     1
175
     1
176
     1
 42
1.0
176
     1
 92
        8
176
     1
 66
     8
424
  8421504
176
     1
 43
1.0
176
     1
 76
     1
176
     1
 77
     6
176
     1
 78
     2
176
     1
 67
     7
176
     1
 79
     5
176
     1
170
     0
176
     1
171
     0
176
     1
290
     0
176
     1
 93
        1
176
     1
 44
0.0
176
     1
173
     0
176
     1
1001
ACAD
1000
AcDbSavedByObjectVersion
1070
     0
  0
VISUALSTYLE
  5
CC
102
{ACAD_XDICTIONARY
360
11E
102
}
102
{ACAD_REACTORS
330
C3
102
}
330
C3
100
AcDbVisualStyle
  2
Conceptual
 70
     9
177
     2
291
     0
 71
     3
176
     1
 72
     2
176
     1
 73
     0
176
     1
 90
        0
176
     1
 40
0.6
176
     1
 41
30.0
176
     1
 63
     7
421
 16777215
176
     1
 74
     2
176
     1
 91
        2
176
     1
 64
     7
176
     1
 65
   257
176
     1
 75
     1
176
     1
175
     1
176
     1
 42
179.0
176
     1
 92
        8
176
     1
 66
     7
176
     1
 43
1.0
176
     1
 76
     1
176
     1
 77
     6
176
     1
 78
     2
176
     1
 67
     7
176
     1
 79
     3
176
     1
170
     0
176
     1
171
     0
176
     1
290
     0
176
     1
 93
        1
176
     1
 44
0.0
176
     1
173
     0
176
     1
1001
ACAD
1000
AcDbSavedByObjectVersion
1070
     0
  0
VISUALSTYLE
  5
CE
102
{ACAD_XDICTIONARY
360
122
102
}
102
{ACAD_REACTORS
330
C3
102
}
330
C3
100
AcDbVisualStyle
  2
Dim
 70
    11
177
     2
291
     1
 71
     2
176
     1
 72
     2
176
     1
 73
     0
176
     1
 90
        0
176
     1
 40
0.6
176
     1
 41
30.0
176
     1
 63
     7
421
 16777215
176
     1
 74
     1
176
     1
 91
        4
176
     1
 64
     7
176
     1
 65
   257
176
     1
 75
     1
176
     1
175
     1
176
     1
 42
1.0
176
     1
 92
        8
176
     1
 66
     7
176
     1
 43
1.0
176
     1
 76
     1
176
     1
 77
     6
176
     1
 78
     2
176
     1
 67
     7
176
     1
 79
     5
176
     1
170
     0
176
     1
171
     0
176
     1
290
     0
176
     1
 93
        1
176
     1
 44
-50.0
176
     1
173
     0
176
     1
1001
ACAD
1000
AcDbSavedByObjectVersion
1070
     0
  0
VISUALSTYLE
  5
DB
102
{ACAD_XDICTIONARY
360
13C
102
}
102
{ACAD_REACTORS
330
C3
102
}
330
C3
100
AcDbVisualStyle
  2
EdgeColorOff
 70
    22
177
     2
291
     1
 71
     2
176
     0
 72
     2
176
     0
 73
     0
176
     0
 90
        0
176
     0
 40
0.6
176
     0
 41
30.0
176
     0
 63
     7
421
 16777215
176
     0
 74
     1
176
     0
 91
        4
176
     0
 64
     7
176
     0
 65
   257
176
     0
 75
     1
176
     0
175
     1
176
     0
 42
1.0
176
     0
 92
        8
176
     2
 66
     7
176
     0
 43
1.0
176
     0
 76
     1
176
     0
 77
     6
176
     0
 78
     2
176
     0
 67
     7
176
     0
 79
     5
176
     0
170
     0
176
     0
171
     0
176
     0
290
     0
176
     0
 93
        1
176
     0
 44
0.0
176
     0
173
     0
176
     0
1001
ACAD
1000
AcDbSavedByObjectVersion
1070
     0
  0
VISUALSTYLE
  5
D2
102
{ACAD_XDICTIONARY
360
12A
102
}
102
{ACAD_REACTORS
330
C3
102
}
330
C3
100
AcDbVisualStyle
  2
Facepattern
 70
    15
177
     2
291
     1
 71
     2
176
     1
 72
     2
176
     1
 73
     0
176
     1
 90
        0
176
     1
 40
0.6
176
     1
 41
30.0
176
     1
 63
     7
421
 16777215
176
     1
 74
     1
176
     1
 91
        4
176
     1
 64
     7
176
     1
 65
   257
176
     1
 75
     1
176
     1
175
     1
176
     1
 42
1.0
176
     1
 92
        8
176
     1
 66
     7
176
     1
 43
1.0
176
     1
 76
     1
176
     1
 77
     6
176
     1
 78
     2
176
     1
 67
     7
176
     1
 79
     5
176
     1
170
     0
176
     1
171
     0
176
     1
290
     0
176
     1
 93
        1
176
     1
 44
0.0
176
     1
173
     0
176
     1
1001
ACAD
1000
AcDbSavedByObjectVersion
1070
     0
  0
VISUALSTYLE
  5
C4
102
{ACAD_XDICTIONARY
360
10E
102
}
102
{ACAD_REACTORS
330
C3
102
}
330
C3
100
AcDbVisualStyle
  2
Flat
 70
     0
177
     2
291
     1
 71
     2
176
     1
 72
     1
176
     1
 73
     1
176
     1
 90
        2
176
     1
 40
0.6
176
     1
 41
30.0
176
     1
 63
     7
421
 16777215
176
     1
 74
     0
176
     1
 91
        0
176
     1
 64
     7
176
     1
 65
   257
176
     1
 75
     1
176
     1
175
     1
176
     1
 42
1.0
176
     1
 92
        8
176
     1
 66
     7
176
     1
 43
1.0
176
     1
 76
     1
176
     1
 77
     6
176
     1
 78
     2
176
     1
 67
     7
176
     1
 79
     5
176
     1
170
     0
176
     1
171
     0
176
     1
290
     0
176
     1
 93
       13
176
     1
 44
0.0
176
     1
173
     0
176
     1
1001
ACAD
1000
AcDbSavedByObjectVersion
1070
     0
  0
VISUALSTYLE
  5
C5
102
{ACAD_XDICTIONARY
360
110
102
}
102
{ACAD_REACTORS
330
C3
102
}
330
C3
100
AcDbVisualStyle
  2
FlatWithEdges
 70
     1
177
     2
291
     1
 71
     2
176
     1
 72
     1
176
     1
 73
     1
176
     1
 90
        2
176
     1
 40
0.6
176
     1
 41
30.0
176
     1
 63
     7
421
 16777215
176
     1
 74
     1
176
     1
 91
        0
176
     1
 64
     7
176
     1
 65
   257
176
     1
 75
     1
176
     1
175
     1
176
     1
 42
1.0
176
     1
 92
        0
176
     1
 66
   257
176
     1
 43
1.0
176
     1
 76
     1
176
     1
 77
     6
176
     1
 78
     2
176
     1
 67
     7
176
     1
 79
     5
176
     1
170
     0
176
     1
171
     0
176
     1
290
     0
176
     1
 93
       13
176
     1
 44
0.0
176
     1
173
     0
176
     1
1001
ACAD
1000
AcDbSavedByObjectVersion
1070
     0
  0
VISUALSTYLE
  5
C6
102
{ACAD_XDICTIONARY
360
112
102
}
102
{ACAD_REACTORS
330
C3
102
}
330
C3
100
AcDbVisualStyle
  2
Gouraud
 70
     2
177
     2
291
     1
 71
     2
176
     1
 72
     2
176
     1
 73
     1
176
     1
 90
        2
176
     1
 40
0.6
176
     1
 41
30.0
176
     1
 63
     7
421
 16777215
176
     1
 74
     0
176
     1
 91
        0
176
     1
 64
     7
176
     1
 65
   257
176
     1
 75
     1
176
     1
175
     1
176
     1
 42
1.0
176
     1
 92
        0
176
     1
 66
     7
176
     1
 43
1.0
176
     1
 76
     1
176
     1
 77
     6
176
     1
 78
     2
176
     1
 67
     7
176
     1
 79
     5
176
     1
170
     0
176
     1
171
     0
176
     1
290
     0
176
     1
 93
       13
176
     1
 44
0.0
176
     1
173
     0
176
     1
1001
ACAD
1000
AcDbSavedByObjectVersion
1070
     0
  0
VISUALSTYLE
  5
C7
102
{ACAD_XDICTIONARY
360
114
102
}
102
{ACAD_REACTORS
330
C3
102
}
330
C3
100
AcDbVisualStyle
  2
GouraudWithEdges
 70
     3
177
     2
291
     1
 71
     2
176
     1
 72
     2
176
     1
 73
     1
176
     1
 90
        2
176
     1
 40
0.6
176
     1
 41
30.0
176
     1
 63
     7
421
 16777215
176
     1
 74
     1
176
     1
 91
        0
176
     1
 64
     7
176
     1
 65
   257
176
     1
 75
     1
176
     1
175
     1
176
     1
 42
1.0
176
     1
 92
        0
176
     1
 66
   257
176
     1
 43
1.0
176
     1
 76
     1
176
     1
 77
     6
176
     1
 78
     2
176
     1
 67
     7
176
     1
 79
     5
176
     1
170
     0
176
     1
171
     0
176
     1
290
     0
176
     1
 93
       13
176
     1
 44
0.0
176
     1
173
     0
176
     1
1001
ACAD
1000
AcDbSavedByObjectVersion
1070
     0
  0
VISUALSTYLE
  5
CB
102
{ACAD_XDICTIONARY
360
11C
102
}
102
{ACAD_REACTORS
330
C3
102
}
330
C3
100
AcDbVisualStyle
  2
Hidden
 70
     6
177
     2
291
     0
 71
     1
176
     1
 72
     2
176
     1
 73
     2
176
     1
 90
        0
176
     1
 40
0.6
176
     1
 41
30.0
176
     1
 63
     7
421
 16777215
176
     1
 74
     2
176
     1
 91
        2
176
     1
 64
     7
176
     1
 65
   257
176
     1
 75
     2
176
     1
175
     1
176
     1
 42
40.0
176
     1
 92
        0
176
     1
 66
   257
176
     1
 43
1.0
176
     1
 76
     1
176
     1
 77
     6
176
     1
 78
     2
176
     1
 67
     7
176
     1
 79
     3
176
     1
170
     0
176
     1
171
     0
176
     1
290
     0
176
     1
 93
        1
176
     1
 44
0.0
176
     1
173
     0
176
     1
1001
ACAD
1000
AcDbSavedByObjectVersion
1070
     0
  0
VISUALSTYLE
  5
D9
102
{ACAD_XDICTIONARY
360
138
102
}
102
{ACAD_REACTORS
330
C3
102
}
330
C3
100
AcDbVisualStyle
  2
JitterOff
 70
    20
177
     2
291
     1
 71
     2
176
     0
 72
     2
176
     0
 73
     0
176
     0
 90
        0
176
     0
 40
0.6
176
     0
 41
30.0
176
     0
 63
     7
421
 16777215
176
     0
 74
     1
176
     0
 91
        4
176
     0
 64
     7
176
     0
 65
   257
176
     0
 75
     1
176
     0
175
     1
176
     0
 42
1.0
176
     0
 92
       10
176
     2
 66
     7
176
     0
 43
1.0
176
     0
 76
     1
176
     0
 77
     6
176
     0
 78
     2
176
     0
 67
     7
176
     0
 79
     5
176
     0
170
     0
176
     0
171
     0
176
     0
290
     0
176
     0
 93
        1
176
     0
 44
0.0
176
     0
173
     0
176
     0
1001
ACAD
1000
AcDbSavedByObjectVersion
1070
     0
  0
VISUALSTYLE
  5
D1
102
{ACAD_XDICTIONARY
360
128
102
}
102
{ACAD_REACTORS
330
C3
102
}
330
C3
100
AcDbVisualStyle
  2
Linepattern
 70
    14
177
     2
291
     1
 71
     2
176
     1
 72
     2
176
     1
 73
     0
176
     1
 90
        0
176
     1
 40
0.6
176
     1
 41
30.0
176
     1
 63
     7
421
 16777215
176
     1
 74
     1
176
     1
 91
        4
176
     1
 64
     7
176
     1
 65
   257
176
     1
 75
     7
176
     1
175
     7
176
     1
 42
1.0
176
     1
 92
        8
176
     1
 66
     7
176
     1
 43
1.0
176
     1
 76
     1
176
     1
 77
     6
176
     1
 78
     2
176
     1
 67
     7
176
     1
 79
     5
176
     1
170
     0
176
     1
171
     0
176
     1
290
     0
176
     1
 93
        1
176
     1
 44
0.0
176
     1
173
     0
176
     1
1001
ACAD
1000
AcDbSavedByObjectVersion
1070
     0
  0
VISUALSTYLE
  5
DA
102
{ACAD_XDICTIONARY
360
13A
102
}
102
{ACAD_REACTORS
330
C3
102
}
330
C3
100
AcDbVisualStyle
  2
OverhangOff
 70
    21
177
     2
291
     1
 71
     2
176
     0
 72
     2
176
     0
 73
     0
176
     0
 90
        0
176
     0
 40
0.6
176
     0
 41
30.0
176
     0
 63
     7
421
 16777215
176
     0
 74
     1
176
     0
 91
        4
176
     0
 64
     7
176
     0
 65
   257
176
     0
 75
     1
176
     0
175
     1
176
     0
 42
1.0
176
     0
 92
        9
176
     2
 66
     7
176
     0
 43
1.0
176
     0
 76
     1
176
     0
 77
     6
176
     0
 78
     2
176
     0
 67
     7
176
     0
 79
     5
176
     0
170
     0
176
     0
171
     0
176
     0
290
     0
176
     0
 93
        1
176
     0
 44
0.0
176
     0
173
     0
176
     0
1001
ACAD
1000
AcDbSavedByObjectVersion
1070
     0
  0
VISUALSTYLE
  5
CD
102
{ACAD_XDICTIONARY
360
120
102
}
102
{ACAD_REACTORS
330
C3
102
}
330
C3
100
AcDbVisualStyle
  2
Realistic
 70
     8
177
     2
291
     0
 71
     2
176
     1
 72
     3
176
     1
 73
     0
176
     1
 90
        2
176
     1
 40
0.6
176
     1
 41
30.0
176
     1
 63
     7
421
 16777215
176
     1
 74
     0
176
     1
 91
        0
176
     1
 64
     7
176
     1
 65
   257
176
     1
 75
     1
176
     1
175
     1
176
     1
 42
1.0
176
     1
 92
        8
176
     1
 66
   257
176
     1
 43
1.0
176
     1
 76
     1
176
     1
 77
     6
176
     1
 78
     2
176
     1
 67
     7
176
     1
 79
     3
176
     1
170
     0
176
     1
171
     0
176
     1
290
     0
176
     1
 93
       13
176
     1
 44
0.0
176
     1
173
     0
176
     1
1001
ACAD
1000
AcDbSavedByObjectVersion
1070
     0
  0
VISUALSTYLE
  5
D8
102
{ACAD_XDICTIONARY
360
136
102
}
102
{ACAD_REACTORS
330
C3
102
}
330
C3
100
AcDbVisualStyle
  2
Shaded
 70
    27
177
     2
291
     0
 71
     2
176
     1
 72
     2
176
     1
 73
     1
176
     1
 90
        2
176
     1
 40
0.6
176
     1
 41
30.0
176
     1
 63
     7
421
 16777215
176
     1
 74
     0
176
     1
 91
        4
176
     1
 64
     7
176
     1
 65
   257
176
     1
 75
     1
176
     1
175
     1
176
     1
 42
1.0
176
     1
 92
        8
176
     1
 66
   257
176
     1
 43
1.0
176
     1
 76
     1
176
     1
 77
     6
176
     1
 78
     2
176
     1
 67
     8
425
  7895160
176
     1
 79
     3
176
     1
170
     0
176
     1
171
     0
176
     1
290
     0
176
     1
 93
        5
176
     1
 44
0.0
176
     1
173
     0
176
     1
1001
ACAD
1000
AcDbSavedByObjectVersion
1070
     0
  0
VISUALSTYLE
  5
D7
102
{ACAD_XDICTIONARY
360
134
102
}
102
{ACAD_REACTORS
330
C3
102
}
330
C3
100
AcDbVisualStyle
  2
Shaded with edges
 70
    26
177
     2
291
     0
 71
     2
176
     1
 72
     2
176
     1
 73
     1
176
     1
 90
        2
176
     1
 40
0.6
176
     1
 41
30.0
176
     1
 63
     7
421
 16777215
176
     1
 74
     1
176
     1
 91
       10
176
     1
 64
     7
176
     1
 65
   257
176
     1
 75
     2
176
     1
175
     1
176
     1
 42
1.0
176
     1
 92
        8
176
     1
 66
   257
176
     1
 43
1.0
176
     1
 76
     1
176
     1
 77
     6
176
     1
 78
     2
176
     1
 67
     7
176
     1
 79
     3
176
     1
170
     0
176
     1
171
     0
176
     1
290
     0
176
     1
 93
        5
176
     1
 44
0.0
176
     1
173
     0
176
     1
1001
ACAD
1000
AcDbSavedByObjectVersion
1070
     0
  0
VISUALSTYLE
  5
D4
102
{ACAD_XDICTIONARY
360
12E
102
}
102
{ACAD_REACTORS
330
C3
102
}
330
C3
100
AcDbVisualStyle
  2
Shades of Gray
 70
    23
177
     2
291
     0
 71
     2
176
     1
 72
     2
176
     1
 73
     3
176
     1
 90
        0
176
     1
 40
0.6
176
     1
 41
30.0
176
     1
 63
     7
421
 16777215
176
     1
 74
     2
176
     1
 91
        2
176
     1
 64
     7
176
     1
 65
     7
176
     1
 75
     1
176
     1
175
     1
176
     1
 42
40.0
176
     1
 92
        8
176
     1
 66
     7
176
     1
 43
1.0
176
     1
 76
     1
176
     1
 77
     6
176
     1
 78
     2
176
     1
 67
     7
176
     1
 79
     3
176
     1
170
     0
176
     1
171
     0
176
     1
290
     0
176
     1
 93
        1
176
     1
 44
0.0
176
     1
173
     0
176
     1
1001
ACAD
1000
AcDbSavedByObjectVersion
1070
     0
  0
VISUALSTYLE
  5
D5
102
{ACAD_XDICTIONARY
360
130
102
}
102
{ACAD_REACTORS
330
C3
102
}
330
C3
100
AcDbVisualStyle
  2
Sketchy
 70
    24
177
     2
291
     0
 71
     1
176
     1
 72
     2
176
     1
 73
     2
176
     1
 90
        0
176
     1
 40
0.6
176
     1
 41
30.0
176
     1
 63
     7
421
 16777215
176
     1
 74
     2
176
     1
 91
        2
176
     1
 64
     7
176
     1
 65
     7
176
     1
 75
     1
176
     1
175
     1
176
     1
 42
40.0
176
     1
 92
       11
176
     1
 66
     7
176
     1
 43
1.0
176
     1
 76
     1
176
     1
 77
     6
176
     1
 78
     2
176
     1
 67
     7
176
     1
 79
     6
176
     1
170
     0
176
     1
171
     0
176
     1
290
     0
176
     1
 93
        1
176
     1
 44
0.0
176
     1
173
     0
176
     1
1001
ACAD
1000
AcDbSavedByObjectVersion
1070
     0
  0
VISUALSTYLE
  5
D0
102
{ACAD_XDICTIONARY
360
126
102
}
102
{ACAD_REACTORS
330
C3
102
}
330
C3
100
AcDbVisualStyle
  2
Thicken
 70
    13
177
     2
291
     1
 71
     2
176
     1
 72
     2
176
     1
 73
     0
176
     1
 90
        0
176
     1
 40
0.6
176
     1
 41
30.0
176
     1
 63
     7
421
 16777215
176
     1
 74
     1
176
     1
 91
        4
176
     1
 64
     7
176
     1
 65
   257
176
     1
 75
     1
176
     1
175
     1
176
     1
 42
1.0
176
     1
 92
       12
176
     1
 66
     7
176
     1
 43
1.0
176
     1
 76
     1
176
     1
 77
     6
176
     1
 78
     2
176
     1
 67
     7
176
     1
 79
     5
176
     1
170
     0
176
     1
171
     0
176
     1
290
     0
176
     1
 93
        1
176
     1
 44
0.0
176
     1
173
     0
176
     1
1001
ACAD
1000
AcDbSavedByObjectVersion
1070
     0
  0
VISUALSTYLE
  5
CA
102
{ACAD_XDICTIONARY
360
11A
102
}
102
{ACAD_REACTORS
330
C3
102
}
330
C3
100
AcDbVisualStyle
  2
Wireframe
 70
     5
177
     2
291
     0
 71
     0
176
     1
 72
     2
176
     1
 73
     0
176
     1
 90
        0
176
     1
 40
0.6
176
     1
 41
30.0
176
     1
 63
     7
421
 16777215
176
     1
 74
     1
176
     1
 91
        4
176
     1
 64
     7
176
     1
 65
   257
176
     1
 75
     1
176
     1
175
     1
176
     1
 42
1.0
176
     1
 92
        0
176
     1
 66
   257
176
     1
 43
1.0
176
     1
 76
     1
176
     1
 77
     6
176
     1
 78
     2
176
     1
 67
     7
176
     1
 79
     3
176
     1
170
     0
176
     1
171
     0
176
     1
290
     0
176
     1
 93
        1
176
     1
 44
0.0
176
     1
173
     0
176
     1
1001
ACAD
1000
AcDbSavedByObjectVersion
1070
     0
  0
VISUALSTYLE
  5
D6
102
{ACAD_XDICTIONARY
360
132
102
}
102
{ACAD_REACTORS
330
C3
102
}
330
C3
100
AcDbVisualStyle
  2
X-Ray
 70
    25
177
     2
291
     0
 71
     2
176
     1
 72
     2
176
     1
 73
     1
176
     1
 90
        1
176
     1
 40
0.5
176
     1
 41
30.0
176
     1
 63
     7
421
 16777215
176
     1
 74
     1
176
     1
 91
        0
176
     1
 64
     7
176
     1
 65
   257
176
     1
 75
     1
176
     1
175
     1
176
     1
 42
1.0
176
     1
 92
        8
176
     1
 66
     7
176
     1
 43
1.0
176
     1
 76
     1
176
     1
 77
     6
176
     1
 78
     2
176
     1
 67
     7
176
     1
 79
     3
176
     1
170
     0
176
     1
171
     0
176
     1
290
     0
176
     1
 93
       13
176
     1
 44
0.0
176
     1
173
     0
176
     1
1001
ACAD
1000
AcDbSavedByObjectVersion
1070
     0
  0
DICTIONARYVAR
  5
107
102
{ACAD_REACTORS
330
101
102
}
330
101
100
DictionaryVariables
280
     0
  1
1:1
  0
DICTIONARYVAR
  5
103
102
{ACAD_REACTORS
330
101
102
}
330
101
100
DictionaryVariables
280
     0
  1
STANDARD
  0
DICTIONARYVAR
  5
102
102
{ACAD_REACTORS
330
101
102
}
330
101
100
DictionaryVariables
280
     0
  1
STANDARD
  0
DICTIONARYVAR
  5
104
102
{ACAD_REACTORS
330
101
102
}
330
101
100
DictionaryVariables
280
     0
  1
Imperial24
  0
DICTIONARYVAR
  5
105
102
{ACAD_REACTORS
330
101
102
}
330
101
100
DictionaryVariables
280
     0
  1
Imperial24
  0
DICTIONARYVAR
  5
109
102
{ACAD_REACTORS
330
101
102
}
330
101
100
DictionaryVariables
280
     0
  1
1
  0
DICTIONARYVAR
  5
10A
102
{ACAD_REACTORS
330
101
102
}
330
101
100
DictionaryVariables
280
     0
  1
15
  0
DICTIONARYVAR
  5
108
102
{ACAD_REACTORS
330
101
102
}
330
101
100
DictionaryVariables
280
     0
  1
0
  0
DICTIONARYVAR
  5
106
102
{ACAD_REACTORS
330
101
102
}
330
101
100
DictionaryVariables
280
     0
  1
0
  0
DICTIONARY
  5
142
330
F6
100
AcDbDictionary
280
     1
281
     1
  3
ACAD_XREC_ROUNDTRIP
360
143
  0
DICTIONARY
  5
B4
330
B3
100
AcDbDictionary
280
     1
281
     1
  3
BUMPTILE
360
B6
  3
DIFFUSETILE
360
B5
  3
OPACITYTILE
360
B9
  3
REFLECTIONTILE
360
B8
  3
REFRACTIONTILE
360
BA
  3
SPECULARTILE
360
B7
  0
DICTIONARY
  5
AC
330
AB
100
AcDbDictionary
280
     1
281
     1
  3
BUMPTILE
360
AE
  3
DIFFUSETILE
360
AD
  3
OPACITYTILE
360
B1
  3
REFLECTIONTILE
360
B0
  3
REFRACTIONTILE
360
B2
  3
SPECULARTILE
360
AF
  0
DICTIONARY
  5
BC
330
BB
100
AcDbDictionary
280
     1
281
     1
  3
BUMPTILE
360
BE
  3
DIFFUSETILE
360
BD
  3
OPACITYTILE
360
C1
  3
REFLECTIONTILE
360
C0
  3
REFRACTIONTILE
360
C2
  3
SPECULARTILE
360
BF
  0
DICTIONARY
  5
13E
330
F2
100
AcDbDictionary
280
     1
281
     1
  3
ACAD_XREC_ROUNDTRIP
360
13F
  0
DICTIONARY
  5
140
330
F4
100
AcDbDictionary
280
     1
281
     1
  3
ACAD_XREC_ROUNDTRIP
360
141
  0
DICTIONARY
  5
10B
330
DE
100
AcDbDictionary
280
     1
281
     1
  3
ACAD_ROUNDTRIP_2008_TABLESTYLE_CELLSTYLEMAP
360
10C
  0
DICTIONARY
  5
118
330
C9
100
AcDbDictionary
280
     1
281
     1
  3
ACAD_XREC_ROUNDTRIP
360
119
  0
DICTIONARY
  5
116
330
C8
100
AcDbDictionary
280
     1
281
     1
  3
ACAD_XREC_ROUNDTRIP
360
117
  0
DICTIONARY
  5
124
330
CF
100
AcDbDictionary
280
     1
281
     1
  3
ACAD_XREC_ROUNDTRIP
360
125
  0
DICTIONARY
  5
12C
330
D3
100
AcDbDictionary
280
     1
281
     1
  3
ACAD_XREC_ROUNDTRIP
360
12D
  0
DICTIONARY
  5
11E
330
CC
100
AcDbDictionary
280
     1
281
     1
  3
ACAD_XREC_ROUNDTRIP
360
11F
  0
DICTIONARY
  5
122
330
CE
100
AcDbDictionary
280
     1
281
     1
  3
ACAD_XREC_ROUNDTRIP
360
123
  0
DICTIONARY
  5
13C
330
DB
100
AcDbDictionary
280
     1
281
     1
  3
ACAD_XREC_ROUNDTRIP
360
13D
  0
DICTIONARY
  5
12A
330
D2
100
AcDbDictionary
280
     1
281
     1
  3
ACAD_XREC_ROUNDTRIP
360
12B
  0
DICTIONARY
  5
10E
330
C4
100
AcDbDictionary
280
     1
281
     1
  3
ACAD_XREC_ROUNDTRIP
360
10F
  0
DICTIONARY
  5
110
330
C5
100
AcDbDictionary
280
     1
281
     1
  3
ACAD_XREC_ROUNDTRIP
360
111
  0
DICTIONARY
  5
112
330
C6
100
AcDbDictionary
280
     1
281
     1
  3
ACAD_XREC_ROUNDTRIP
360
113
  0
DICTIONARY
  5
114
330
C7
100
AcDbDictionary
280
     1
281
     1
  3
ACAD_XREC_ROUNDTRIP
360
115
  0
DICTIONARY
  5
11C
330
CB
100
AcDbDictionary
280
     1
281
     1
  3
ACAD_XREC_ROUNDTRIP
360
11D
  0
DICTIONARY
  5
138
330
D9
100
AcDbDictionary
280
     1
281
     1
  3
ACAD_XREC_ROUNDTRIP
360
139
  0
DICTIONARY
  5
128
330
D1
100
AcDbDictionary
280
     1
281
     1
  3
ACAD_XREC_ROUNDTRIP
360
129
  0
DICTIONARY
  5
13A
330
DA
100
AcDbDictionary
280
     1
281
     1
  3
ACAD_XREC_ROUNDTRIP
360
13B
  0
DICTIONARY
  5
120
330
CD
100
AcDbDictionary
280
     1
281
     1
  3
ACAD_XREC_ROUNDTRIP
360
121
  0
DICTIONARY
  5
136
330
D8
100
AcDbDictionary
280
     1
281
     1
  3
ACAD_XREC_ROUNDTRIP
360
137
  0
DICTIONARY
  5
134
330
D7
100
AcDbDictionary
280
     1
281
     1
  3
ACAD_XREC_ROUNDTRIP
360
135
  0
DICTIONARY
  5
12E
330
D4
100
AcDbDictionary
280
     1
281
     1
  3
ACAD_XREC_ROUNDTRIP
360
12F
  0
DICTIONARY
  5
130
330
D5
100
AcDbDictionary
280
     1
281
     1
  3
ACAD_XREC_ROUNDTRIP
360
131
  0
DICTIONARY
  5
126
330
D0
100
AcDbDictionary
280
     1
281
     1
  3
ACAD_XREC_ROUNDTRIP
360
127
  0
DICTIONARY
  5
11A
330
CA
100
AcDbDictionary
280
     1
281
     1
  3
ACAD_XREC_ROUNDTRIP
360
11B
  0
DICTIONARY
  5
132
330
D6
100
AcDbDictionary
280
     1
281
     1
  3
ACAD_XREC_ROUNDTRIP
360
133
  0
XRECORD
  5
143
102
{ACAD_REACTORS
330
142
102
}
330
142
100
AcDbXrecord
280
     1
102
DISPLAYNAME
  1
Imperial24
102
FLAGS
 90
        0
  0
XRECORD
  5
B6
102
{ACAD_REACTORS
330
B4
102
}
330
B4
100
AcDbXrecord
280
     1
270
     1
271
     1
  0
XRECORD
  5
B5
102
{ACAD_REACTORS
330
B4
102
}
330
B4
100
AcDbXrecord
280
     1
270
     1
271
     1
  0
XRECORD
  5
B9
102
{ACAD_REACTORS
330
B4
102
}
330
B4
100
AcDbXrecord
280
     1
270
     1
271
     1
  0
XRECORD
  5
B8
102
{ACAD_REACTORS
330
B4
102
}
330
B4
100
AcDbXrecord
280
     1
270
     1
271
     1
  0
XRECORD
  5
BA
102
{ACAD_REACTORS
330
B4
102
}
330
B4
100
AcDbXrecord
280
     1
270
     1
271
     1
  0
XRECORD
  5
B7
102
{ACAD_REACTORS
330
B4
102
}
330
B4
100
AcDbXrecord
280
     1
270
     1
271
     1
  0
XRECORD
  5
AE
102
{ACAD_REACTORS
330
AC
102
}
330
AC
100
AcDbXrecord
280
     1
270
     1
271
     1
  0
XRECORD
  5
AD
102
{ACAD_REACTORS
330
AC
102
}
330
AC
100
AcDbXrecord
280
     1
270
     1
271
     1
  0
XRECORD
  5
B1
102
{ACAD_REACTORS
330
AC
102
}
330
AC
100
AcDbXrecord
280
     1
270
     1
271
     1
  0
XRECORD
  5
B0
102
{ACAD_REACTORS
330
AC
102
}
330
AC
100
AcDbXrecord
280
     1
270
     1
271
     1
  0
XRECORD
  5
B2
102
{ACAD_REACTORS
330
AC
102
}
330
AC
100
AcDbXrecord
280
     1
270
     1
271
     1
  0
XRECORD
  5
AF
102
{ACAD_REACTORS
330
AC
102
}
330
AC
100
AcDbXrecord
280
     1
270
     1
271
     1
  0
XRECORD
  5
BE
102
{ACAD_REACTORS
330
BC
102
}
330
BC
100
AcDbXrecord
280
     1
270
     1
271
     1
  0
XRECORD
  5
BD
102
{ACAD_REACTORS
330
BC
102
}
330
BC
100
AcDbXrecord
280
     1
270
     1
271
     1
  0
XRECORD
  5
C1
102
{ACAD_REACTORS
330
BC
102
}
330
BC
100
AcDbXrecord
280
     1
270
     1
271
     1
  0
XRECORD
  5
C0
102
{ACAD_REACTORS
330
BC
102
}
330
BC
100
AcDbXrecord
280
     1
270
     1
271
     1
  0
XRECORD
  5
C2
102
{ACAD_REACTORS
330
BC
102
}
330
BC
100
AcDbXrecord
280
     1
270
     1
271
     1
  0
XRECORD
  5
BF
102
{ACAD_REACTORS
330
BC
102
}
330
BC
100
AcDbXrecord
280
     1
270
     1
271
     1
  0
XRECORD
  5
13F
102
{ACAD_REACTORS
330
13E
102
}
330
13E
100
AcDbXrecord
280
     1
102
ACAD_ROUNDTRIP_2012_MLEADER_STYLE
298
     1
  0
XRECORD
  5
141
102
{ACAD_REACTORS
330
140
102
}
330
140
100
AcDbXrecord
280
     1
102
DISPLAYNAME
  1
Imperial24
102
FLAGS
 90
        0
  0
CELLSTYLEMAP
  5
10C
102
{ACAD_REACTORS
330
10B
102
}
330
10B
100
AcDbCellStyleMap
 90
        3
300
CELLSTYLE
  1
TABLEFORMAT_BEGIN
 90
        5
170
     1
 91
        0
 92
    32768
 62
   257
 93
        1
300
CONTENTFORMAT
  1
CONTENTFORMAT_BEGIN
 90
        0
 91
        0
 92
      512
 93
        0
300

 40
0.0
140
1.0
 94
        5
 62
     0
340
11
144
0.25
309
CONTENTFORMAT_END
171
     0
 94
        0
309
TABLEFORMAT_END
  1
CELLSTYLE_BEGIN
 90
        1
 91
        1
300
_TITLE
309
CELLSTYLE_END
300
CELLSTYLE
  1
TABLEFORMAT_BEGIN
 90
        5
170
     1
 91
        0
 92
        0
 62
   257
 93
        1
300
CONTENTFORMAT
  1
CONTENTFORMAT_BEGIN
 90
        0
 91
        0
 92
      512
 93
        0
300

 40
0.0
140
1.0
 94
        5
 62
     0
340
11
144
0.18
309
CONTENTFORMAT_END
171
     0
 94
        0
309
TABLEFORMAT_END
  1
CELLSTYLE_BEGIN
 90
        2
 91
        1
300
_HEADER
309
CELLSTYLE_END
300
CELLSTYLE
  1
TABLEFORMAT_BEGIN
 90
        5
170
     1
 91
        0
 92
        0
 62
   257
 93
        1
300
CONTENTFORMAT
  1
CONTENTFORMAT_BEGIN
 90
        0
 91
        0
 92
      512
 93
        0
300

 40
0.0
140
1.0
 94
        2
 62
     0
340
11
144
0.18
309
CONTENTFORMAT_END
171
     0
 94
        0
309
TABLEFORMAT_END
  1
CELLSTYLE_BEGIN
 90
        3
 91
        2
300
_DATA
309
CELLSTYLE_END
  0
XRECORD
  5
119
102
{ACAD_REACTORS
330
118
102
}
330
118
100
AcDbXrecord
280
     1
102
RTVSPost2010Prop28
280
     1
102
RTVSPost2010PropOp28
 70
     1
102
RTVSPost2010Prop29
280
     1
102
RTVSPost2010PropOp29
 70
     1
102
RTVSPost2010Prop30
280
     0
102
RTVSPost2010PropOp30
 70
     1
102
RTVSPost2010Prop31
280
     0
102
RTVSPost2010PropOp31
 70
     1
102
RTVSPost2010Prop32
280
     0
102
RTVSPost2010PropOp32
 70
     1
102
RTVSPost2010Prop33
280
     0
102
RTVSPost2010PropOp33
 70
     1
102
RTVSPost2010Prop34
280
     0
102
RTVSPost2010PropOp34
 70
     1
102
RTVSPost2010Prop35
280
     0
102
RTVSPost2010PropOp35
 70
     1
102
RTVSPost2010Prop36
280
     0
102
RTVSPost2010PropOp36
 70
     1
102
RTVSPost2010Prop37
 90
       50
102
RTVSPost2010PropOp37
 70
     1
102
RTVSPost2010Prop38
140
0.0
102
RTVSPost2010PropOp38
 70
     1
102
RTVSPost2010Prop39
140
1.0
102
RTVSPost2010PropOp39
 70
     1
102
RTVSPost2010Prop40
 90
        0
102
RTVSPost2010PropOp40
 70
     1
102
RTVSPost2010Prop41ColorIndex
 90
       18
102
RTVSPost2010Prop41ColorRGB
 90
        0
102
RTVSPost2010PropOp41
 70
     1
102
RTVSPost2010Prop42
 90
       50
102
RTVSPost2010PropOp42
 70
     1
102
RTVSPost2010Prop43
 90
        3
102
RTVSPost2010PropOp43
 70
     1
102
RTVSPost2010Prop44ColorIndex
 90
        5
102
RTVSPost2010Prop44ColorRGB
 90
      255
102
RTVSPost2010PropOp44
 70
     1
102
RTVSPost2010Prop45
280
     0
102
RTVSPost2010PropOp45
 70
     1
102
RTVSPost2010Prop46
 90
       50
102
RTVSPost2010PropOp46
 70
     1
102
RTVSPost2010Prop47
 90
       50
102
RTVSPost2010PropOp47
 70
     1
102
RTVSPost2010Prop48
 90
       50
102
RTVSPost2010PropOp48
 70
     1
102
RTVSPost2010Prop49
280
     0
102
RTVSPost2010PropOp49
 70
     1
102
RTVSPost2010Prop50
 90
       50
102
RTVSPost2010PropOp50
 70
     1
102
RTVSPost2010Prop51ColorIndex
 90
      256
102
RTVSPost2010Prop51ColorRGB
 90
-16777216
102
RTVSPost2010PropOp51
 70
     0
102
RTVSPost2010Prop52
140
1.0
102
RTVSPost2010PropOp52
 70
     0
102
RTVSPost2010Prop53
 90
        2
102
RTVSPost2010PropOp53
 70
     1
102
RTVSPost2010Prop54
  1
strokes_ogs.tif
102
RTVSPost2010PropOp54
 70
     1
102
RTVSPost2010Prop55
280
     0
102
RTVSPost2010PropOp55
 70
     1
102
RTVSPost2010Prop56
140
1.0
102
RTVSPost2010PropOp56
 70
     1
102
RTVSPost2010Prop57
140
1.0
102
RTVSPost2010PropOp57
 70
     1
  0
XRECORD
  5
117
102
{ACAD_REACTORS
330
116
102
}
330
116
100
AcDbXrecord
280
     1
102
RTVSPost2010Prop28
280
     0
102
RTVSPost2010PropOp28
 70
     1
102
RTVSPost2010Prop29
280
     1
102
RTVSPost2010PropOp29
 70
     1
102
RTVSPost2010Prop30
280
     1
102
RTVSPost2010PropOp30
 70
     1
102
RTVSPost2010Prop31
280
     0
102
RTVSPost2010PropOp31
 70
     1
102
RTVSPost2010Prop32
280
     0
102
RTVSPost2010PropOp32
 70
     1
102
RTVSPost2010Prop33
280
     0
102
RTVSPost2010PropOp33
 70
     1
102
RTVSPost2010Prop34
280
     0
102
RTVSPost2010PropOp34
 70
     1
102
RTVSPost2010Prop35
280
     0
102
RTVSPost2010PropOp35
 70
     1
102
RTVSPost2010Prop36
280
     0
102
RTVSPost2010PropOp36
 70
     1
102
RTVSPost2010Prop37
 90
       50
102
RTVSPost2010PropOp37
 70
     1
102
RTVSPost2010Prop38
140
0.0
102
RTVSPost2010PropOp38
 70
     1
102
RTVSPost2010Prop39
140
1.0
102
RTVSPost2010PropOp39
 70
     1
102
RTVSPost2010Prop40
 90
        0
102
RTVSPost2010PropOp40
 70
     1
102
RTVSPost2010Prop41ColorIndex
 90
       18
102
RTVSPost2010Prop41ColorRGB
 90
        0
102
RTVSPost2010PropOp41
 70
     1
102
RTVSPost2010Prop42
 90
       50
102
RTVSPost2010PropOp42
 70
     1
102
RTVSPost2010Prop43
 90
        3
102
RTVSPost2010PropOp43
 70
     1
102
RTVSPost2010Prop44ColorIndex
 90
        5
102
RTVSPost2010Prop44ColorRGB
 90
      255
102
RTVSPost2010PropOp44
 70
     1
102
RTVSPost2010Prop45
280
     0
102
RTVSPost2010PropOp45
 70
     1
102
RTVSPost2010Prop46
 90
       50
102
RTVSPost2010PropOp46
 70
     1
102
RTVSPost2010Prop47
 90
       50
102
RTVSPost2010PropOp47
 70
     1
102
RTVSPost2010Prop48
 90
       50
102
RTVSPost2010PropOp48
 70
     1
102
RTVSPost2010Prop49
280
     0
102
RTVSPost2010PropOp49
 70
     1
102
RTVSPost2010Prop50
 90
       50
102
RTVSPost2010PropOp50
 70
     1
102
RTVSPost2010Prop51ColorIndex
 90
      256
102
RTVSPost2010Prop51ColorRGB
 90
-16777216
102
RTVSPost2010PropOp51
 70
     0
102
RTVSPost2010Prop52
140
1.0
102
RTVSPost2010PropOp52
 70
     0
102
RTVSPost2010Prop53
 90
        2
102
RTVSPost2010PropOp53
 70
     1
102
RTVSPost2010Prop54
  1
strokes_ogs.tif
102
RTVSPost2010PropOp54
 70
     1
102
RTVSPost2010Prop55
280
     0
102
RTVSPost2010PropOp55
 70
     1
102
RTVSPost2010Prop56
140
1.0
102
RTVSPost2010PropOp56
 70
     1
102
RTVSPost2010Prop57
140
1.0
102
RTVSPost2010PropOp57
 70
     1
  0
XRECORD
  5
125
102
{ACAD_REACTORS
330
124
102
}
330
124
100
AcDbXrecord
280
     1
102
RTVSPost2010Prop28
280
     0
102
RTVSPost2010PropOp28
 70
     1
102
RTVSPost2010Prop29
280
     1
102
RTVSPost2010PropOp29
 70
     1
102
RTVSPost2010Prop30
280
     1
102
RTVSPost2010PropOp30
 70
     1
102
RTVSPost2010Prop31
280
     0
102
RTVSPost2010PropOp31
 70
     1
102
RTVSPost2010Prop32
280
     0
102
RTVSPost2010PropOp32
 70
     1
102
RTVSPost2010Prop33
280
     0
102
RTVSPost2010PropOp33
 70
     1
102
RTVSPost2010Prop34
280
     0
102
RTVSPost2010PropOp34
 70
     1
102
RTVSPost2010Prop35
280
     0
102
RTVSPost2010PropOp35
 70
     1
102
RTVSPost2010Prop36
280
     0
102
RTVSPost2010PropOp36
 70
     1
102
RTVSPost2010Prop37
 90
       50
102
RTVSPost2010PropOp37
 70
     1
102
RTVSPost2010Prop38
140
0.0
102
RTVSPost2010PropOp38
 70
     1
102
RTVSPost2010Prop39
140
1.0
102
RTVSPost2010PropOp39
 70
     1
102
RTVSPost2010Prop40
 90
        0
102
RTVSPost2010PropOp40
 70
     1
102
RTVSPost2010Prop41ColorIndex
 90
       18
102
RTVSPost2010Prop41ColorRGB
 90
        0
102
RTVSPost2010PropOp41
 70
     1
102
RTVSPost2010Prop42
 90
       50
102
RTVSPost2010PropOp42
 70
     1
102
RTVSPost2010Prop43
 90
        3
102
RTVSPost2010PropOp43
 70
     1
102
RTVSPost2010Prop44ColorIndex
 90
        5
102
RTVSPost2010Prop44ColorRGB
 90
      255
102
RTVSPost2010PropOp44
 70
     1
102
RTVSPost2010Prop45
280
     0
102
RTVSPost2010PropOp45
 70
     1
102
RTVSPost2010Prop46
 90
       50
102
RTVSPost2010PropOp46
 70
     1
102
RTVSPost2010Prop47
 90
       50
102
RTVSPost2010PropOp47
 70
     1
102
RTVSPost2010Prop48
 90
       50
102
RTVSPost2010PropOp48
 70
     1
102
RTVSPost2010Prop49
280
     0
102
RTVSPost2010PropOp49
 70
     1
102
RTVSPost2010Prop50
 90
       50
102
RTVSPost2010PropOp50
 70
     1
102
RTVSPost2010Prop51ColorIndex
 90
      256
102
RTVSPost2010Prop51ColorRGB
 90
-16777216
102
RTVSPost2010PropOp51
 70
     0
102
RTVSPost2010Prop52
140
1.0
102
RTVSPost2010PropOp52
 70
     0
102
RTVSPost2010Prop53
 90
        2
102
RTVSPost2010PropOp53
 70
     1
102
RTVSPost2010Prop54
  1
strokes_ogs.tif
102
RTVSPost2010PropOp54
 70
     1
102
RTVSPost2010Prop55
280
     0
102
RTVSPost2010PropOp55
 70
     1
102
RTVSPost2010Prop56
140
1.0
102
RTVSPost2010PropOp56
 70
     1
102
RTVSPost2010Prop57
140
1.0
102
RTVSPost2010PropOp57
 70
     1
  0
XRECORD
  5
12D
102
{ACAD_REACTORS
330
12C
102
}
330
12C
100
AcDbXrecord
280
     1
102
RTVSPost2010Prop28
280
     0
102
RTVSPost2010PropOp28
 70
     1
102
RTVSPost2010Prop29
280
     1
102
RTVSPost2010PropOp29
 70
     1
102
RTVSPost2010Prop30
280
     1
102
RTVSPost2010PropOp30
 70
     1
102
RTVSPost2010Prop31
280
     0
102
RTVSPost2010PropOp31
 70
     1
102
RTVSPost2010Prop32
280
     0
102
RTVSPost2010PropOp32
 70
     1
102
RTVSPost2010Prop33
280
     0
102
RTVSPost2010PropOp33
 70
     1
102
RTVSPost2010Prop34
280
     0
102
RTVSPost2010PropOp34
 70
     1
102
RTVSPost2010Prop35
280
     0
102
RTVSPost2010PropOp35
 70
     1
102
RTVSPost2010Prop36
280
     0
102
RTVSPost2010PropOp36
 70
     1
102
RTVSPost2010Prop37
 90
       50
102
RTVSPost2010PropOp37
 70
     1
102
RTVSPost2010Prop38
140
0.0
102
RTVSPost2010PropOp38
 70
     1
102
RTVSPost2010Prop39
140
1.0
102
RTVSPost2010PropOp39
 70
     1
102
RTVSPost2010Prop40
 90
        0
102
RTVSPost2010PropOp40
 70
     1
102
RTVSPost2010Prop41ColorIndex
 90
       18
102
RTVSPost2010Prop41ColorRGB
 90
        0
102
RTVSPost2010PropOp41
 70
     1
102
RTVSPost2010Prop42
 90
       50
102
RTVSPost2010PropOp42
 70
     1
102
RTVSPost2010Prop43
 90
        3
102
RTVSPost2010PropOp43
 70
     1
102
RTVSPost2010Prop44ColorIndex
 90
        5
102
RTVSPost2010Prop44ColorRGB
 90
      255
102
RTVSPost2010PropOp44
 70
     1
102
RTVSPost2010Prop45
280
     0
102
RTVSPost2010PropOp45
 70
     1
102
RTVSPost2010Prop46
 90
       50
102
RTVSPost2010PropOp46
 70
     1
102
RTVSPost2010Prop47
 90
       50
102
RTVSPost2010PropOp47
 70
     1
102
RTVSPost2010Prop48
 90
       50
102
RTVSPost2010PropOp48
 70
     1
102
RTVSPost2010Prop49
280
     0
102
RTVSPost2010PropOp49
 70
     1
102
RTVSPost2010Prop50
 90
       50
102
RTVSPost2010PropOp50
 70
     1
102
RTVSPost2010Prop51ColorIndex
 90
      256
102
RTVSPost2010Prop51ColorRGB
 90
-16777216
102
RTVSPost2010PropOp51
 70
     0
102
RTVSPost2010Prop52
140
1.0
102
RTVSPost2010PropOp52
 70
     0
102
RTVSPost2010Prop53
 90
        2
102
RTVSPost2010PropOp53
 70
     1
102
RTVSPost2010Prop54
  1
strokes_ogs.tif
102
RTVSPost2010PropOp54
 70
     1
102
RTVSPost2010Prop55
280
     0
102
RTVSPost2010PropOp55
 70
     1
102
RTVSPost2010Prop56
140
1.0
102
RTVSPost2010PropOp56
 70
     1
102
RTVSPost2010Prop57
140
1.0
102
RTVSPost2010PropOp57
 70
     1
  0
XRECORD
  5
11F
102
{ACAD_REACTORS
330
11E
102
}
330
11E
100
AcDbXrecord
280
     1
102
RTVSPost2010Prop28
280
     0
102
RTVSPost2010PropOp28
 70
     1
102
RTVSPost2010Prop29
280
     1
102
RTVSPost2010PropOp29
 70
     1
102
RTVSPost2010Prop30
280
     1
102
RTVSPost2010PropOp30
 70
     1
102
RTVSPost2010Prop31
280
     0
102
RTVSPost2010PropOp31
 70
     1
102
RTVSPost2010Prop32
280
     0
102
RTVSPost2010PropOp32
 70
     1
102
RTVSPost2010Prop33
280
     0
102
RTVSPost2010PropOp33
 70
     1
102
RTVSPost2010Prop34
280
     0
102
RTVSPost2010PropOp34
 70
     1
102
RTVSPost2010Prop35
280
     0
102
RTVSPost2010PropOp35
 70
     1
102
RTVSPost2010Prop36
280
     0
102
RTVSPost2010PropOp36
 70
     1
102
RTVSPost2010Prop37
 90
       50
102
RTVSPost2010PropOp37
 70
     1
102
RTVSPost2010Prop38
140
0.0
102
RTVSPost2010PropOp38
 70
     1
102
RTVSPost2010Prop39
140
1.0
102
RTVSPost2010PropOp39
 70
     1
102
RTVSPost2010Prop40
 90
        0
102
RTVSPost2010PropOp40
 70
     1
102
RTVSPost2010Prop41ColorIndex
 90
       18
102
RTVSPost2010Prop41ColorRGB
 90
        0
102
RTVSPost2010PropOp41
 70
     1
102
RTVSPost2010Prop42
 90
       50
102
RTVSPost2010PropOp42
 70
     1
102
RTVSPost2010Prop43
 90
        3
102
RTVSPost2010PropOp43
 70
     1
102
RTVSPost2010Prop44ColorIndex
 90
        5
102
RTVSPost2010Prop44ColorRGB
 90
      255
102
RTVSPost2010PropOp44
 70
     1
102
RTVSPost2010Prop45
280
     0
102
RTVSPost2010PropOp45
 70
     1
102
RTVSPost2010Prop46
 90
       50
102
RTVSPost2010PropOp46
 70
     1
102
RTVSPost2010Prop47
 90
       50
102
RTVSPost2010PropOp47
 70
     1
102
RTVSPost2010Prop48
 90
       50
102
RTVSPost2010PropOp48
 70
     1
102
RTVSPost2010Prop49
280
     0
102
RTVSPost2010PropOp49
 70
     1
102
RTVSPost2010Prop50
 90
       50
102
RTVSPost2010PropOp50
 70
     1
102
RTVSPost2010Prop51ColorIndex
 90
      256
102
RTVSPost2010Prop51ColorRGB
 90
-16777216
102
RTVSPost2010PropOp51
 70
     0
102
RTVSPost2010Prop52
140
1.0
102
RTVSPost2010PropOp52
 70
     0
102
RTVSPost2010Prop53
 90
        2
102
RTVSPost2010PropOp53
 70
     1
102
RTVSPost2010Prop54
  1
strokes_ogs.tif
102
RTVSPost2010PropOp54
 70
     1
102
RTVSPost2010Prop55
280
     0
102
RTVSPost2010PropOp55
 70
     1
102
RTVSPost2010Prop56
140
1.0
102
RTVSPost2010PropOp56
 70
     1
102
RTVSPost2010Prop57
140
1.0
102
RTVSPost2010PropOp57
 70
     1
  0
XRECORD
  5
123
102
{ACAD_REACTORS
330
122
102
}
330
122
100
AcDbXrecord
280
     1
102
RTVSPost2010Prop28
280
     0
102
RTVSPost2010PropOp28
 70
     1
102
RTVSPost2010Prop29
280
     1
102
RTVSPost2010PropOp29
 70
     1
102
RTVSPost2010Prop30
280
     1
102
RTVSPost2010PropOp30
 70
     1
102
RTVSPost2010Prop31
280
     0
102
RTVSPost2010PropOp31
 70
     1
102
RTVSPost2010Prop32
280
     0
102
RTVSPost2010PropOp32
 70
     1
102
RTVSPost2010Prop33
280
     0
102
RTVSPost2010PropOp33
 70
     1
102
RTVSPost2010Prop34
280
     0
102
RTVSPost2010PropOp34
 70
     1
102
RTVSPost2010Prop35
280
     0
102
RTVSPost2010PropOp35
 70
     1
102
RTVSPost2010Prop36
280
     0
102
RTVSPost2010PropOp36
 70
     1
102
RTVSPost2010Prop37
 90
       50
102
RTVSPost2010PropOp37
 70
     1
102
RTVSPost2010Prop38
140
0.0
102
RTVSPost2010PropOp38
 70
     1
102
RTVSPost2010Prop39
140
1.0
102
RTVSPost2010PropOp39
 70
     1
102
RTVSPost2010Prop40
 90
        0
102
RTVSPost2010PropOp40
 70
     1
102
RTVSPost2010Prop41ColorIndex
 90
       18
102
RTVSPost2010Prop41ColorRGB
 90
        0
102
RTVSPost2010PropOp41
 70
     1
102
RTVSPost2010Prop42
 90
       50
102
RTVSPost2010PropOp42
 70
     1
102
RTVSPost2010Prop43
 90
        3
102
RTVSPost2010PropOp43
 70
     1
102
RTVSPost2010Prop44ColorIndex
 90
        5
102
RTVSPost2010Prop44ColorRGB
 90
      255
102
RTVSPost2010PropOp44
 70
     1
102
RTVSPost2010Prop45
280
     0
102
RTVSPost2010PropOp45
 70
     1
102
RTVSPost2010Prop46
 90
       50
102
RTVSPost2010PropOp46
 70
     1
102
RTVSPost2010Prop47
 90
       50
102
RTVSPost2010PropOp47
 70
     1
102
RTVSPost2010Prop48
 90
       50
102
RTVSPost2010PropOp48
 70
     1
102
RTVSPost2010Prop49
280
     0
102
RTVSPost2010PropOp49
 70
     1
102
RTVSPost2010Prop50
 90
       50
102
RTVSPost2010PropOp50
 70
     1
102
RTVSPost2010Prop51ColorIndex
 90
      256
102
RTVSPost2010Prop51ColorRGB
 90
-16777216
102
RTVSPost2010PropOp51
 70
     0
102
RTVSPost2010Prop52
140
1.0
102
RTVSPost2010PropOp52
 70
     0
102
RTVSPost2010Prop53
 90
        2
102
RTVSPost2010PropOp53
 70
     1
102
RTVSPost2010Prop54
  1
strokes_ogs.tif
102
RTVSPost2010PropOp54
 70
     1
102
RTVSPost2010Prop55
280
     0
102
RTVSPost2010PropOp55
 70
     1
102
RTVSPost2010Prop56
140
1.0
102
RTVSPost2010PropOp56
 70
     1
102
RTVSPost2010Prop57
140
1.0
102
RTVSPost2010PropOp57
 70
     1
  0
XRECORD
  5
13D
102
{ACAD_REACTORS
330
13C
102
}
330
13C
100
AcDbXrecord
280
     1
102
RTVSPost2010Prop28
280
     0
102
RTVSPost2010PropOp28
 70
     0
102
RTVSPost2010Prop29
280
     1
102
RTVSPost2010PropOp29
 70
     0
102
RTVSPost2010Prop30
280
     1
102
RTVSPost2010PropOp30
 70
     0
102
RTVSPost2010Prop31
280
     0
102
RTVSPost2010PropOp31
 70
     0
102
RTVSPost2010Prop32
280
     0
102
RTVSPost2010PropOp32
 70
     0
102
RTVSPost2010Prop33
280
     0
102
RTVSPost2010PropOp33
 70
     0
102
RTVSPost2010Prop34
280
     0
102
RTVSPost2010PropOp34
 70
     0
102
RTVSPost2010Prop35
280
     0
102
RTVSPost2010PropOp35
 70
     0
102
RTVSPost2010Prop36
280
     0
102
RTVSPost2010PropOp36
 70
     0
102
RTVSPost2010Prop37
 90
       50
102
RTVSPost2010PropOp37
 70
     0
102
RTVSPost2010Prop38
140
0.0
102
RTVSPost2010PropOp38
 70
     0
102
RTVSPost2010Prop39
140
1.0
102
RTVSPost2010PropOp39
 70
     0
102
RTVSPost2010Prop40
 90
        0
102
RTVSPost2010PropOp40
 70
     0
102
RTVSPost2010Prop41ColorIndex
 90
       18
102
RTVSPost2010Prop41ColorRGB
 90
        0
102
RTVSPost2010PropOp41
 70
     0
102
RTVSPost2010Prop42
 90
       50
102
RTVSPost2010PropOp42
 70
     0
102
RTVSPost2010Prop43
 90
        3
102
RTVSPost2010PropOp43
 70
     0
102
RTVSPost2010Prop44ColorIndex
 90
        5
102
RTVSPost2010Prop44ColorRGB
 90
      255
102
RTVSPost2010PropOp44
 70
     0
102
RTVSPost2010Prop45
280
     0
102
RTVSPost2010PropOp45
 70
     0
102
RTVSPost2010Prop46
 90
       50
102
RTVSPost2010PropOp46
 70
     0
102
RTVSPost2010Prop47
 90
       50
102
RTVSPost2010PropOp47
 70
     0
102
RTVSPost2010Prop48
 90
       50
102
RTVSPost2010PropOp48
 70
     0
102
RTVSPost2010Prop49
280
     0
102
RTVSPost2010PropOp49
 70
     0
102
RTVSPost2010Prop50
 90
       50
102
RTVSPost2010PropOp50
 70
     0
102
RTVSPost2010Prop51ColorIndex
 90
      256
102
RTVSPost2010Prop51ColorRGB
 90
-16777216
102
RTVSPost2010PropOp51
 70
     0
102
RTVSPost2010Prop52
140
1.0
102
RTVSPost2010PropOp52
 70
     0
102
RTVSPost2010Prop53
 90
        2
102
RTVSPost2010PropOp53
 70
     0
102
RTVSPost2010Prop54
  1
strokes_ogs.tif
102
RTVSPost2010PropOp54
 70
     0
102
RTVSPost2010Prop55
280
     0
102
RTVSPost2010PropOp55
 70
     0
102
RTVSPost2010Prop56
140
1.0
102
RTVSPost2010PropOp56
 70
     0
102
RTVSPost2010Prop57
140
1.0
102
RTVSPost2010PropOp57
 70
     0
  0
XRECORD
  5
12B
102
{ACAD_REACTORS
330
12A
102
}
330
12A
100
AcDbXrecord
280
     1
102
RTVSPost2010Prop28
280
     0
102
RTVSPost2010PropOp28
 70
     1
102
RTVSPost2010Prop29
280
     1
102
RTVSPost2010PropOp29
 70
     1
102
RTVSPost2010Prop30
280
     1
102
RTVSPost2010PropOp30
 70
     1
102
RTVSPost2010Prop31
280
     0
102
RTVSPost2010PropOp31
 70
     1
102
RTVSPost2010Prop32
280
     0
102
RTVSPost2010PropOp32
 70
     1
102
RTVSPost2010Prop33
280
     0
102
RTVSPost2010PropOp33
 70
     1
102
RTVSPost2010Prop34
280
     0
102
RTVSPost2010PropOp34
 70
     1
102
RTVSPost2010Prop35
280
     0
102
RTVSPost2010PropOp35
 70
     1
102
RTVSPost2010Prop36
280
     0
102
RTVSPost2010PropOp36
 70
     1
102
RTVSPost2010Prop37
 90
       50
102
RTVSPost2010PropOp37
 70
     1
102
RTVSPost2010Prop38
140
0.0
102
RTVSPost2010PropOp38
 70
     1
102
RTVSPost2010Prop39
140
1.0
102
RTVSPost2010PropOp39
 70
     1
102
RTVSPost2010Prop40
 90
        0
102
RTVSPost2010PropOp40
 70
     1
102
RTVSPost2010Prop41ColorIndex
 90
       18
102
RTVSPost2010Prop41ColorRGB
 90
        0
102
RTVSPost2010PropOp41
 70
     1
102
RTVSPost2010Prop42
 90
       50
102
RTVSPost2010PropOp42
 70
     1
102
RTVSPost2010Prop43
 90
        3
102
RTVSPost2010PropOp43
 70
     1
102
RTVSPost2010Prop44ColorIndex
 90
        5
102
RTVSPost2010Prop44ColorRGB
 90
      255
102
RTVSPost2010PropOp44
 70
     1
102
RTVSPost2010Prop45
280
     0
102
RTVSPost2010PropOp45
 70
     1
102
RTVSPost2010Prop46
 90
       50
102
RTVSPost2010PropOp46
 70
     1
102
RTVSPost2010Prop47
 90
       50
102
RTVSPost2010PropOp47
 70
     1
102
RTVSPost2010Prop48
 90
       50
102
RTVSPost2010PropOp48
 70
     1
102
RTVSPost2010Prop49
280
     0
102
RTVSPost2010PropOp49
 70
     1
102
RTVSPost2010Prop50
 90
       50
102
RTVSPost2010PropOp50
 70
     1
102
RTVSPost2010Prop51ColorIndex
 90
      256
102
RTVSPost2010Prop51ColorRGB
 90
-16777216
102
RTVSPost2010PropOp51
 70
     0
102
RTVSPost2010Prop52
140
1.0
102
RTVSPost2010PropOp52
 70
     0
102
RTVSPost2010Prop53
 90
        2
102
RTVSPost2010PropOp53
 70
     1
102
RTVSPost2010Prop54
  1
strokes_ogs.tif
102
RTVSPost2010PropOp54
 70
     1
102
RTVSPost2010Prop55
280
     0
102
RTVSPost2010PropOp55
 70
     1
102
RTVSPost2010Prop56
140
1.0
102
RTVSPost2010PropOp56
 70
     1
102
RTVSPost2010Prop57
140
1.0
102
RTVSPost2010PropOp57
 70
     1
  0
XRECORD
  5
10F
102
{ACAD_REACTORS
330
10E
102
}
330
10E
100
AcDbXrecord
280
     1
102
RTVSPost2010Prop28
280
     0
102
RTVSPost2010PropOp28
 70
     1
102
RTVSPost2010Prop29
280
     1
102
RTVSPost2010PropOp29
 70
     1
102
RTVSPost2010Prop30
280
     1
102
RTVSPost2010PropOp30
 70
     1
102
RTVSPost2010Prop31
280
     0
102
RTVSPost2010PropOp31
 70
     1
102
RTVSPost2010Prop32
280
     0
102
RTVSPost2010PropOp32
 70
     1
102
RTVSPost2010Prop33
280
     0
102
RTVSPost2010PropOp33
 70
     1
102
RTVSPost2010Prop34
280
     0
102
RTVSPost2010PropOp34
 70
     1
102
RTVSPost2010Prop35
280
     0
102
RTVSPost2010PropOp35
 70
     1
102
RTVSPost2010Prop36
280
     0
102
RTVSPost2010PropOp36
 70
     1
102
RTVSPost2010Prop37
 90
       50
102
RTVSPost2010PropOp37
 70
     1
102
RTVSPost2010Prop38
140
0.0
102
RTVSPost2010PropOp38
 70
     1
102
RTVSPost2010Prop39
140
1.0
102
RTVSPost2010PropOp39
 70
     1
102
RTVSPost2010Prop40
 90
        0
102
RTVSPost2010PropOp40
 70
     1
102
RTVSPost2010Prop41ColorIndex
 90
       18
102
RTVSPost2010Prop41ColorRGB
 90
        0
102
RTVSPost2010PropOp41
 70
     1
102
RTVSPost2010Prop42
 90
       50
102
RTVSPost2010PropOp42
 70
     1
102
RTVSPost2010Prop43
 90
        3
102
RTVSPost2010PropOp43
 70
     1
102
RTVSPost2010Prop44ColorIndex
 90
        5
102
RTVSPost2010Prop44ColorRGB
 90
      255
102
RTVSPost2010PropOp44
 70
     1
102
RTVSPost2010Prop45
280
     0
102
RTVSPost2010PropOp45
 70
     1
102
RTVSPost2010Prop46
 90
       50
102
RTVSPost2010PropOp46
 70
     1
102
RTVSPost2010Prop47
 90
       50
102
RTVSPost2010PropOp47
 70
     1
102
RTVSPost2010Prop48
 90
       50
102
RTVSPost2010PropOp48
 70
     1
102
RTVSPost2010Prop49
280
     0
102
RTVSPost2010PropOp49
 70
     1
102
RTVSPost2010Prop50
 90
       50
102
RTVSPost2010PropOp50
 70
     1
102
RTVSPost2010Prop51ColorIndex
 90
      256
102
RTVSPost2010Prop51ColorRGB
 90
-16777216
102
RTVSPost2010PropOp51
 70
     0
102
RTVSPost2010Prop52
140
1.0
102
RTVSPost2010PropOp52
 70
     0
102
RTVSPost2010Prop53
 90
        2
102
RTVSPost2010PropOp53
 70
     1
102
RTVSPost2010Prop54
  1
strokes_ogs.tif
102
RTVSPost2010PropOp54
 70
     1
102
RTVSPost2010Prop55
280
     0
102
RTVSPost2010PropOp55
 70
     1
102
RTVSPost2010Prop56
140
1.0
102
RTVSPost2010PropOp56
 70
     1
102
RTVSPost2010Prop57
140
1.0
102
RTVSPost2010PropOp57
 70
     1
  0
XRECORD
  5
111
102
{ACAD_REACTORS
330
110
102
}
330
110
100
AcDbXrecord
280
     1
102
RTVSPost2010Prop28
280
     0
102
RTVSPost2010PropOp28
 70
     1
102
RTVSPost2010Prop29
280
     1
102
RTVSPost2010PropOp29
 70
     1
102
RTVSPost2010Prop30
280
     1
102
RTVSPost2010PropOp30
 70
     1
102
RTVSPost2010Prop31
280
     0
102
RTVSPost2010PropOp31
 70
     1
102
RTVSPost2010Prop32
280
     0
102
RTVSPost2010PropOp32
 70
     1
102
RTVSPost2010Prop33
280
     0
102
RTVSPost2010PropOp33
 70
     1
102
RTVSPost2010Prop34
280
     0
102
RTVSPost2010PropOp34
 70
     1
102
RTVSPost2010Prop35
280
     0
102
RTVSPost2010PropOp35
 70
     1
102
RTVSPost2010Prop36
280
     0
102
RTVSPost2010PropOp36
 70
     1
102
RTVSPost2010Prop37
 90
       50
102
RTVSPost2010PropOp37
 70
     1
102
RTVSPost2010Prop38
140
0.0
102
RTVSPost2010PropOp38
 70
     1
102
RTVSPost2010Prop39
140
1.0
102
RTVSPost2010PropOp39
 70
     1
102
RTVSPost2010Prop40
 90
        0
102
RTVSPost2010PropOp40
 70
     1
102
RTVSPost2010Prop41ColorIndex
 90
       18
102
RTVSPost2010Prop41ColorRGB
 90
        0
102
RTVSPost2010PropOp41
 70
     1
102
RTVSPost2010Prop42
 90
       50
102
RTVSPost2010PropOp42
 70
     1
102
RTVSPost2010Prop43
 90
        3
102
RTVSPost2010PropOp43
 70
     1
102
RTVSPost2010Prop44ColorIndex
 90
        5
102
RTVSPost2010Prop44ColorRGB
 90
      255
102
RTVSPost2010PropOp44
 70
     1
102
RTVSPost2010Prop45
280
     0
102
RTVSPost2010PropOp45
 70
     1
102
RTVSPost2010Prop46
 90
       50
102
RTVSPost2010PropOp46
 70
     1
102
RTVSPost2010Prop47
 90
       50
102
RTVSPost2010PropOp47
 70
     1
102
RTVSPost2010Prop48
 90
       50
102
RTVSPost2010PropOp48
 70
     1
102
RTVSPost2010Prop49
280
     0
102
RTVSPost2010PropOp49
 70
     1
102
RTVSPost2010Prop50
 90
       50
102
RTVSPost2010PropOp50
 70
     1
102
RTVSPost2010Prop51ColorIndex
 90
      256
102
RTVSPost2010Prop51ColorRGB
 90
-16777216
102
RTVSPost2010PropOp51
 70
     0
102
RTVSPost2010Prop52
140
1.0
102
RTVSPost2010PropOp52
 70
     0
102
RTVSPost2010Prop53
 90
        2
102
RTVSPost2010PropOp53
 70
     1
102
RTVSPost2010Prop54
  1
strokes_ogs.tif
102
RTVSPost2010PropOp54
 70
     1
102
RTVSPost2010Prop55
280
     0
102
RTVSPost2010PropOp55
 70
     1
102
RTVSPost2010Prop56
140
1.0
102
RTVSPost2010PropOp56
 70
     1
102
RTVSPost2010Prop57
140
1.0
102
RTVSPost2010PropOp57
 70
     1
  0
XRECORD
  5
113
102
{ACAD_REACTORS
330
112
102
}
330
112
100
AcDbXrecord
280
     1
102
RTVSPost2010Prop28
280
     0
102
RTVSPost2010PropOp28
 70
     1
102
RTVSPost2010Prop29
280
     1
102
RTVSPost2010PropOp29
 70
     1
102
RTVSPost2010Prop30
280
     1
102
RTVSPost2010PropOp30
 70
     1
102
RTVSPost2010Prop31
280
     0
102
RTVSPost2010PropOp31
 70
     1
102
RTVSPost2010Prop32
280
     0
102
RTVSPost2010PropOp32
 70
     1
102
RTVSPost2010Prop33
280
     0
102
RTVSPost2010PropOp33
 70
     1
102
RTVSPost2010Prop34
280
     0
102
RTVSPost2010PropOp34
 70
     1
102
RTVSPost2010Prop35
280
     0
102
RTVSPost2010PropOp35
 70
     1
102
RTVSPost2010Prop36
280
     0
102
RTVSPost2010PropOp36
 70
     1
102
RTVSPost2010Prop37
 90
       50
102
RTVSPost2010PropOp37
 70
     1
102
RTVSPost2010Prop38
140
0.0
102
RTVSPost2010PropOp38
 70
     1
102
RTVSPost2010Prop39
140
1.0
102
RTVSPost2010PropOp39
 70
     1
102
RTVSPost2010Prop40
 90
        0
102
RTVSPost2010PropOp40
 70
     1
102
RTVSPost2010Prop41ColorIndex
 90
       18
102
RTVSPost2010Prop41ColorRGB
 90
        0
102
RTVSPost2010PropOp41
 70
     1
102
RTVSPost2010Prop42
 90
       50
102
RTVSPost2010PropOp42
 70
     1
102
RTVSPost2010Prop43
 90
        3
102
RTVSPost2010PropOp43
 70
     1
102
RTVSPost2010Prop44ColorIndex
 90
        5
102
RTVSPost2010Prop44ColorRGB
 90
      255
102
RTVSPost2010PropOp44
 70
     1
102
RTVSPost2010Prop45
280
     0
102
RTVSPost2010PropOp45
 70
     1
102
RTVSPost2010Prop46
 90
       50
102
RTVSPost2010PropOp46
 70
     1
102
RTVSPost2010Prop47
 90
       50
102
RTVSPost2010PropOp47
 70
     1
102
RTVSPost2010Prop48
 90
       50
102
RTVSPost2010PropOp48
 70
     1
102
RTVSPost2010Prop49
280
     0
102
RTVSPost2010PropOp49
 70
     1
102
RTVSPost2010Prop50
 90
       50
102
RTVSPost2010PropOp50
 70
     1
102
RTVSPost2010Prop51ColorIndex
 90
      256
102
RTVSPost2010Prop51ColorRGB
 90
-16777216
102
RTVSPost2010PropOp51
 70
     0
102
RTVSPost2010Prop52
140
1.0
102
RTVSPost2010PropOp52
 70
     0
102
RTVSPost2010Prop53
 90
        2
102
RTVSPost2010PropOp53
 70
     1
102
RTVSPost2010Prop54
  1
strokes_ogs.tif
102
RTVSPost2010PropOp54
 70
     1
102
RTVSPost2010Prop55
280
     0
102
RTVSPost2010PropOp55
 70
     1
102
RTVSPost2010Prop56
140
1.0
102
RTVSPost2010PropOp56
 70
     1
102
RTVSPost2010Prop57
140
1.0
102
RTVSPost2010PropOp57
 70
     1
  0
XRECORD
  5
115
102
{ACAD_REACTORS
330
114
102
}
330
114
100
AcDbXrecord
280
     1
102
RTVSPost2010Prop28
280
     0
102
RTVSPost2010PropOp28
 70
     1
102
RTVSPost2010Prop29
280
     1
102
RTVSPost2010PropOp29
 70
     1
102
RTVSPost2010Prop30
280
     1
102
RTVSPost2010PropOp30
 70
     1
102
RTVSPost2010Prop31
280
     0
102
RTVSPost2010PropOp31
 70
     1
102
RTVSPost2010Prop32
280
     0
102
RTVSPost2010PropOp32
 70
     1
102
RTVSPost2010Prop33
280
     0
102
RTVSPost2010PropOp33
 70
     1
102
RTVSPost2010Prop34
280
     0
102
RTVSPost2010PropOp34
 70
     1
102
RTVSPost2010Prop35
280
     0
102
RTVSPost2010PropOp35
 70
     1
102
RTVSPost2010Prop36
280
     0
102
RTVSPost2010PropOp36
 70
     1
102
RTVSPost2010Prop37
 90
       50
102
RTVSPost2010PropOp37
 70
     1
102
RTVSPost2010Prop38
140
0.0
102
RTVSPost2010PropOp38
 70
     1
102
RTVSPost2010Prop39
140
1.0
102
RTVSPost2010PropOp39
 70
     1
102
RTVSPost2010Prop40
 90
        0
102
RTVSPost2010PropOp40
 70
     1
102
RTVSPost2010Prop41ColorIndex
 90
       18
102
RTVSPost2010Prop41ColorRGB
 90
        0
102
RTVSPost2010PropOp41
 70
     1
102
RTVSPost2010Prop42
 90
       50
102
RTVSPost2010PropOp42
 70
     1
102
RTVSPost2010Prop43
 90
        3
102
RTVSPost2010PropOp43
 70
     1
102
RTVSPost2010Prop44ColorIndex
 90
        5
102
RTVSPost2010Prop44ColorRGB
 90
      255
102
RTVSPost2010PropOp44
 70
     1
102
RTVSPost2010Prop45
280
     0
102
RTVSPost2010PropOp45
 70
     1
102
RTVSPost2010Prop46
 90
       50
102
RTVSPost2010PropOp46
 70
     1
102
RTVSPost2010Prop47
 90
       50
102
RTVSPost2010PropOp47
 70
     1
102
RTVSPost2010Prop48
 90
       50
102
RTVSPost2010PropOp48
 70
     1
102
RTVSPost2010Prop49
280
     0
102
RTVSPost2010PropOp49
 70
     1
102
RTVSPost2010Prop50
 90
       50
102
RTVSPost2010PropOp50
 70
     1
102
RTVSPost2010Prop51ColorIndex
 90
      256
102
RTVSPost2010Prop51ColorRGB
 90
-16777216
102
RTVSPost2010PropOp51
 70
     0
102
RTVSPost2010Prop52
140
1.0
102
RTVSPost2010PropOp52
 70
     0
102
RTVSPost2010Prop53
 90
        2
102
RTVSPost2010PropOp53
 70
     1
102
RTVSPost2010Prop54
  1
strokes_ogs.tif
102
RTVSPost2010PropOp54
 70
     1
102
RTVSPost2010Prop55
280
     0
102
RTVSPost2010PropOp55
 70
     1
102
RTVSPost2010Prop56
140
1.0
102
RTVSPost2010PropOp56
 70
     1
102
RTVSPost2010Prop57
140
1.0
102
RTVSPost2010PropOp57
 70
     1
  0
XRECORD
  5
11D
102
{ACAD_REACTORS
330
11C
102
}
330
11C
100
AcDbXrecord
280
     1
102
RTVSPost2010Prop28
280
     0
102
RTVSPost2010PropOp28
 70
     1
102
RTVSPost2010Prop29
280
     1
102
RTVSPost2010PropOp29
 70
     1
102
RTVSPost2010Prop30
280
     1
102
RTVSPost2010PropOp30
 70
     1
102
RTVSPost2010Prop31
280
     0
102
RTVSPost2010PropOp31
 70
     1
102
RTVSPost2010Prop32
280
     0
102
RTVSPost2010PropOp32
 70
     1
102
RTVSPost2010Prop33
280
     0
102
RTVSPost2010PropOp33
 70
     1
102
RTVSPost2010Prop34
280
     0
102
RTVSPost2010PropOp34
 70
     1
102
RTVSPost2010Prop35
280
     0
102
RTVSPost2010PropOp35
 70
     1
102
RTVSPost2010Prop36
280
     0
102
RTVSPost2010PropOp36
 70
     1
102
RTVSPost2010Prop37
 90
       50
102
RTVSPost2010PropOp37
 70
     1
102
RTVSPost2010Prop38
140
0.0
102
RTVSPost2010PropOp38
 70
     1
102
RTVSPost2010Prop39
140
1.0
102
RTVSPost2010PropOp39
 70
     1
102
RTVSPost2010Prop40
 90
        0
102
RTVSPost2010PropOp40
 70
     1
102
RTVSPost2010Prop41ColorIndex
 90
       18
102
RTVSPost2010Prop41ColorRGB
 90
        0
102
RTVSPost2010PropOp41
 70
     1
102
RTVSPost2010Prop42
 90
       50
102
RTVSPost2010PropOp42
 70
     1
102
RTVSPost2010Prop43
 90
        3
102
RTVSPost2010PropOp43
 70
     1
102
RTVSPost2010Prop44ColorIndex
 90
        5
102
RTVSPost2010Prop44ColorRGB
 90
      255
102
RTVSPost2010PropOp44
 70
     1
102
RTVSPost2010Prop45
280
     0
102
RTVSPost2010PropOp45
 70
     1
102
RTVSPost2010Prop46
 90
       50
102
RTVSPost2010PropOp46
 70
     1
102
RTVSPost2010Prop47
 90
       50
102
RTVSPost2010PropOp47
 70
     1
102
RTVSPost2010Prop48
 90
       50
102
RTVSPost2010PropOp48
 70
     1
102
RTVSPost2010Prop49
280
     0
102
RTVSPost2010PropOp49
 70
     1
102
RTVSPost2010Prop50
 90
       50
102
RTVSPost2010PropOp50
 70
     1
102
RTVSPost2010Prop51ColorIndex
 90
      256
102
RTVSPost2010Prop51ColorRGB
 90
-16777216
102
RTVSPost2010PropOp51
 70
     0
102
RTVSPost2010Prop52
140
1.0
102
RTVSPost2010PropOp52
 70
     0
102
RTVSPost2010Prop53
 90
        2
102
RTVSPost2010PropOp53
 70
     1
102
RTVSPost2010Prop54
  1
strokes_ogs.tif
102
RTVSPost2010PropOp54
 70
     1
102
RTVSPost2010Prop55
280
     0
102
RTVSPost2010PropOp55
 70
     1
102
RTVSPost2010Prop56
140
1.0
102
RTVSPost2010PropOp56
 70
     1
102
RTVSPost2010Prop57
140
1.0
102
RTVSPost2010PropOp57
 70
     1
  0
XRECORD
  5
139
102
{ACAD_REACTORS
330
138
102
}
330
138
100
AcDbXrecord
280
     1
102
RTVSPost2010Prop28
280
     0
102
RTVSPost2010PropOp28
 70
     0
102
RTVSPost2010Prop29
280
     1
102
RTVSPost2010PropOp29
 70
     0
102
RTVSPost2010Prop30
280
     1
102
RTVSPost2010PropOp30
 70
     0
102
RTVSPost2010Prop31
280
     0
102
RTVSPost2010PropOp31
 70
     0
102
RTVSPost2010Prop32
280
     0
102
RTVSPost2010PropOp32
 70
     0
102
RTVSPost2010Prop33
280
     0
102
RTVSPost2010PropOp33
 70
     0
102
RTVSPost2010Prop34
280
     0
102
RTVSPost2010PropOp34
 70
     0
102
RTVSPost2010Prop35
280
     0
102
RTVSPost2010PropOp35
 70
     0
102
RTVSPost2010Prop36
280
     0
102
RTVSPost2010PropOp36
 70
     0
102
RTVSPost2010Prop37
 90
       50
102
RTVSPost2010PropOp37
 70
     0
102
RTVSPost2010Prop38
140
0.0
102
RTVSPost2010PropOp38
 70
     0
102
RTVSPost2010Prop39
140
1.0
102
RTVSPost2010PropOp39
 70
     0
102
RTVSPost2010Prop40
 90
        0
102
RTVSPost2010PropOp40
 70
     0
102
RTVSPost2010Prop41ColorIndex
 90
       18
102
RTVSPost2010Prop41ColorRGB
 90
        0
102
RTVSPost2010PropOp41
 70
     0
102
RTVSPost2010Prop42
 90
       50
102
RTVSPost2010PropOp42
 70
     0
102
RTVSPost2010Prop43
 90
        3
102
RTVSPost2010PropOp43
 70
     0
102
RTVSPost2010Prop44ColorIndex
 90
        5
102
RTVSPost2010Prop44ColorRGB
 90
      255
102
RTVSPost2010PropOp44
 70
     0
102
RTVSPost2010Prop45
280
     0
102
RTVSPost2010PropOp45
 70
     0
102
RTVSPost2010Prop46
 90
       50
102
RTVSPost2010PropOp46
 70
     0
102
RTVSPost2010Prop47
 90
       50
102
RTVSPost2010PropOp47
 70
     0
102
RTVSPost2010Prop48
 90
       50
102
RTVSPost2010PropOp48
 70
     0
102
RTVSPost2010Prop49
280
     0
102
RTVSPost2010PropOp49
 70
     0
102
RTVSPost2010Prop50
 90
       50
102
RTVSPost2010PropOp50
 70
     0
102
RTVSPost2010Prop51ColorIndex
 90
      256
102
RTVSPost2010Prop51ColorRGB
 90
-16777216
102
RTVSPost2010PropOp51
 70
     0
102
RTVSPost2010Prop52
140
1.0
102
RTVSPost2010PropOp52
 70
     0
102
RTVSPost2010Prop53
 90
        2
102
RTVSPost2010PropOp53
 70
     0
102
RTVSPost2010Prop54
  1
strokes_ogs.tif
102
RTVSPost2010PropOp54
 70
     0
102
RTVSPost2010Prop55
280
     0
102
RTVSPost2010PropOp55
 70
     0
102
RTVSPost2010Prop56
140
1.0
102
RTVSPost2010PropOp56
 70
     0
102
RTVSPost2010Prop57
140
1.0
102
RTVSPost2010PropOp57
 70
     0
  0
XRECORD
  5
129
102
{ACAD_REACTORS
330
128
102
}
330
128
100
AcDbXrecord
280
     1
102
RTVSPost2010Prop28
280
     0
102
RTVSPost2010PropOp28
 70
     1
102
RTVSPost2010Prop29
280
     1
102
RTVSPost2010PropOp29
 70
     1
102
RTVSPost2010Prop30
280
     1
102
RTVSPost2010PropOp30
 70
     1
102
RTVSPost2010Prop31
280
     0
102
RTVSPost2010PropOp31
 70
     1
102
RTVSPost2010Prop32
280
     0
102
RTVSPost2010PropOp32
 70
     1
102
RTVSPost2010Prop33
280
     0
102
RTVSPost2010PropOp33
 70
     1
102
RTVSPost2010Prop34
280
     0
102
RTVSPost2010PropOp34
 70
     1
102
RTVSPost2010Prop35
280
     0
102
RTVSPost2010PropOp35
 70
     1
102
RTVSPost2010Prop36
280
     0
102
RTVSPost2010PropOp36
 70
     1
102
RTVSPost2010Prop37
 90
       50
102
RTVSPost2010PropOp37
 70
     1
102
RTVSPost2010Prop38
140
0.0
102
RTVSPost2010PropOp38
 70
     1
102
RTVSPost2010Prop39
140
1.0
102
RTVSPost2010PropOp39
 70
     1
102
RTVSPost2010Prop40
 90
        0
102
RTVSPost2010PropOp40
 70
     1
102
RTVSPost2010Prop41ColorIndex
 90
       18
102
RTVSPost2010Prop41ColorRGB
 90
        0
102
RTVSPost2010PropOp41
 70
     1
102
RTVSPost2010Prop42
 90
       50
102
RTVSPost2010PropOp42
 70
     1
102
RTVSPost2010Prop43
 90
        3
102
RTVSPost2010PropOp43
 70
     1
102
RTVSPost2010Prop44ColorIndex
 90
        5
102
RTVSPost2010Prop44ColorRGB
 90
      255
102
RTVSPost2010PropOp44
 70
     1
102
RTVSPost2010Prop45
280
     0
102
RTVSPost2010PropOp45
 70
     1
102
RTVSPost2010Prop46
 90
       50
102
RTVSPost2010PropOp46
 70
     1
102
RTVSPost2010Prop47
 90
       50
102
RTVSPost2010PropOp47
 70
     1
102
RTVSPost2010Prop48
 90
       50
102
RTVSPost2010PropOp48
 70
     1
102
RTVSPost2010Prop49
280
     0
102
RTVSPost2010PropOp49
 70
     1
102
RTVSPost2010Prop50
 90
       50
102
RTVSPost2010PropOp50
 70
     1
102
RTVSPost2010Prop51ColorIndex
 90
      256
102
RTVSPost2010Prop51ColorRGB
 90
-16777216
102
RTVSPost2010PropOp51
 70
     0
102
RTVSPost2010Prop52
140
1.0
102
RTVSPost2010PropOp52
 70
     0
102
RTVSPost2010Prop53
 90
        2
102
RTVSPost2010PropOp53
 70
     1
102
RTVSPost2010Prop54
  1
strokes_ogs.tif
102
RTVSPost2010PropOp54
 70
     1
102
RTVSPost2010Prop55
280
     0
102
RTVSPost2010PropOp55
 70
     1
102
RTVSPost2010Prop56
140
1.0
102
RTVSPost2010PropOp56
 70
     1
102
RTVSPost2010Prop57
140
1.0
102
RTVSPost2010PropOp57
 70
     1
  0
XRECORD
  5
13B
102
{ACAD_REACTORS
330
13A
102
}
330
13A
100
AcDbXrecord
280
     1
102
RTVSPost2010Prop28
280
     0
102
RTVSPost2010PropOp28
 70
     0
102
RTVSPost2010Prop29
280
     1
102
RTVSPost2010PropOp29
 70
     0
102
RTVSPost2010Prop30
280
     1
102
RTVSPost2010PropOp30
 70
     0
102
RTVSPost2010Prop31
280
     0
102
RTVSPost2010PropOp31
 70
     0
102
RTVSPost2010Prop32
280
     0
102
RTVSPost2010PropOp32
 70
     0
102
RTVSPost2010Prop33
280
     0
102
RTVSPost2010PropOp33
 70
     0
102
RTVSPost2010Prop34
280
     0
102
RTVSPost2010PropOp34
 70
     0
102
RTVSPost2010Prop35
280
     0
102
RTVSPost2010PropOp35
 70
     0
102
RTVSPost2010Prop36
280
     0
102
RTVSPost2010PropOp36
 70
     0
102
RTVSPost2010Prop37
 90
       50
102
RTVSPost2010PropOp37
 70
     0
102
RTVSPost2010Prop38
140
0.0
102
RTVSPost2010PropOp38
 70
     0
102
RTVSPost2010Prop39
140
1.0
102
RTVSPost2010PropOp39
 70
     0
102
RTVSPost2010Prop40
 90
        0
102
RTVSPost2010PropOp40
 70
     0
102
RTVSPost2010Prop41ColorIndex
 90
       18
102
RTVSPost2010Prop41ColorRGB
 90
        0
102
RTVSPost2010PropOp41
 70
     0
102
RTVSPost2010Prop42
 90
       50
102
RTVSPost2010PropOp42
 70
     0
102
RTVSPost2010Prop43
 90
        3
102
RTVSPost2010PropOp43
 70
     0
102
RTVSPost2010Prop44ColorIndex
 90
        5
102
RTVSPost2010Prop44ColorRGB
 90
      255
102
RTVSPost2010PropOp44
 70
     0
102
RTVSPost2010Prop45
280
     0
102
RTVSPost2010PropOp45
 70
     0
102
RTVSPost2010Prop46
 90
       50
102
RTVSPost2010PropOp46
 70
     0
102
RTVSPost2010Prop47
 90
       50
102
RTVSPost2010PropOp47
 70
     0
102
RTVSPost2010Prop48
 90
       50
102
RTVSPost2010PropOp48
 70
     0
102
RTVSPost2010Prop49
280
     0
102
RTVSPost2010PropOp49
 70
     0
102
RTVSPost2010Prop50
 90
       50
102
RTVSPost2010PropOp50
 70
     0
102
RTVSPost2010Prop51ColorIndex
 90
      256
102
RTVSPost2010Prop51ColorRGB
 90
-16777216
102
RTVSPost2010PropOp51
 70
     0
102
RTVSPost2010Prop52
140
1.0
102
RTVSPost2010PropOp52
 70
     0
102
RTVSPost2010Prop53
 90
        2
102
RTVSPost2010PropOp53
 70
     0
102
RTVSPost2010Prop54
  1
strokes_ogs.tif
102
RTVSPost2010PropOp54
 70
     0
102
RTVSPost2010Prop55
280
     0
102
RTVSPost2010PropOp55
 70
     0
102
RTVSPost2010Prop56
140
1.0
102
RTVSPost2010PropOp56
 70
     0
102
RTVSPost2010Prop57
140
1.0
102
RTVSPost2010PropOp57
 70
     0
  0
XRECORD
  5
121
102
{ACAD_REACTORS
330
120
102
}
330
120
100
AcDbXrecord
280
     1
102
RTVSPost2010Prop28
280
     0
102
RTVSPost2010PropOp28
 70
     1
102
RTVSPost2010Prop29
280
     1
102
RTVSPost2010PropOp29
 70
     1
102
RTVSPost2010Prop30
280
     1
102
RTVSPost2010PropOp30
 70
     1
102
RTVSPost2010Prop31
280
     0
102
RTVSPost2010PropOp31
 70
     1
102
RTVSPost2010Prop32
280
     0
102
RTVSPost2010PropOp32
 70
     1
102
RTVSPost2010Prop33
280
     0
102
RTVSPost2010PropOp33
 70
     1
102
RTVSPost2010Prop34
280
     0
102
RTVSPost2010PropOp34
 70
     1
102
RTVSPost2010Prop35
280
     0
102
RTVSPost2010PropOp35
 70
     1
102
RTVSPost2010Prop36
280
     0
102
RTVSPost2010PropOp36
 70
     1
102
RTVSPost2010Prop37
 90
       50
102
RTVSPost2010PropOp37
 70
     1
102
RTVSPost2010Prop38
140
0.0
102
RTVSPost2010PropOp38
 70
     1
102
RTVSPost2010Prop39
140
1.0
102
RTVSPost2010PropOp39
 70
     1
102
RTVSPost2010Prop40
 90
        0
102
RTVSPost2010PropOp40
 70
     1
102
RTVSPost2010Prop41ColorIndex
 90
       18
102
RTVSPost2010Prop41ColorRGB
 90
        0
102
RTVSPost2010PropOp41
 70
     1
102
RTVSPost2010Prop42
 90
       50
102
RTVSPost2010PropOp42
 70
     1
102
RTVSPost2010Prop43
 90
        3
102
RTVSPost2010PropOp43
 70
     1
102
RTVSPost2010Prop44ColorIndex
 90
        5
102
RTVSPost2010Prop44ColorRGB
 90
      255
102
RTVSPost2010PropOp44
 70
     1
102
RTVSPost2010Prop45
280
     0
102
RTVSPost2010PropOp45
 70
     1
102
RTVSPost2010Prop46
 90
       50
102
RTVSPost2010PropOp46
 70
     1
102
RTVSPost2010Prop47
 90
       50
102
RTVSPost2010PropOp47
 70
     1
102
RTVSPost2010Prop48
 90
       50
102
RTVSPost2010PropOp48
 70
     1
102
RTVSPost2010Prop49
280
     0
102
RTVSPost2010PropOp49
 70
     1
102
RTVSPost2010Prop50
 90
       50
102
RTVSPost2010PropOp50
 70
     1
102
RTVSPost2010Prop51ColorIndex
 90
      256
102
RTVSPost2010Prop51ColorRGB
 90
-16777216
102
RTVSPost2010PropOp51
 70
     0
102
RTVSPost2010Prop52
140
1.0
102
RTVSPost2010PropOp52
 70
     0
102
RTVSPost2010Prop53
 90
        2
102
RTVSPost2010PropOp53
 70
     1
102
RTVSPost2010Prop54
  1
strokes_ogs.tif
102
RTVSPost2010PropOp54
 70
     1
102
RTVSPost2010Prop55
280
     0
102
RTVSPost2010PropOp55
 70
     1
102
RTVSPost2010Prop56
140
1.0
102
RTVSPost2010PropOp56
 70
     1
102
RTVSPost2010Prop57
140
1.0
102
RTVSPost2010PropOp57
 70
     1
  0
XRECORD
  5
137
102
{ACAD_REACTORS
330
136
102
}
330
136
100
AcDbXrecord
280
     1
102
RTVSPost2010Prop28
280
     0
102
RTVSPost2010PropOp28
 70
     1
102
RTVSPost2010Prop29
280
     1
102
RTVSPost2010PropOp29
 70
     1
102
RTVSPost2010Prop30
280
     1
102
RTVSPost2010PropOp30
 70
     1
102
RTVSPost2010Prop31
280
     0
102
RTVSPost2010PropOp31
 70
     1
102
RTVSPost2010Prop32
280
     0
102
RTVSPost2010PropOp32
 70
     1
102
RTVSPost2010Prop33
280
     0
102
RTVSPost2010PropOp33
 70
     1
102
RTVSPost2010Prop34
280
     0
102
RTVSPost2010PropOp34
 70
     1
102
RTVSPost2010Prop35
280
     0
102
RTVSPost2010PropOp35
 70
     1
102
RTVSPost2010Prop36
280
     0
102
RTVSPost2010PropOp36
 70
     1
102
RTVSPost2010Prop37
 90
       50
102
RTVSPost2010PropOp37
 70
     1
102
RTVSPost2010Prop38
140
0.0
102
RTVSPost2010PropOp38
 70
     1
102
RTVSPost2010Prop39
140
1.0
102
RTVSPost2010PropOp39
 70
     1
102
RTVSPost2010Prop40
 90
        0
102
RTVSPost2010PropOp40
 70
     1
102
RTVSPost2010Prop41ColorIndex
 90
       18
102
RTVSPost2010Prop41ColorRGB
 90
        0
102
RTVSPost2010PropOp41
 70
     1
102
RTVSPost2010Prop42
 90
       50
102
RTVSPost2010PropOp42
 70
     1
102
RTVSPost2010Prop43
 90
        3
102
RTVSPost2010PropOp43
 70
     1
102
RTVSPost2010Prop44ColorIndex
 90
        5
102
RTVSPost2010Prop44ColorRGB
 90
      255
102
RTVSPost2010PropOp44
 70
     1
102
RTVSPost2010Prop45
280
     0
102
RTVSPost2010PropOp45
 70
     1
102
RTVSPost2010Prop46
 90
       50
102
RTVSPost2010PropOp46
 70
     1
102
RTVSPost2010Prop47
 90
       50
102
RTVSPost2010PropOp47
 70
     1
102
RTVSPost2010Prop48
 90
       50
102
RTVSPost2010PropOp48
 70
     1
102
RTVSPost2010Prop49
280
     0
102
RTVSPost2010PropOp49
 70
     1
102
RTVSPost2010Prop50
 90
       50
102
RTVSPost2010PropOp50
 70
     1
102
RTVSPost2010Prop51ColorIndex
 90
      256
102
RTVSPost2010Prop51ColorRGB
 90
-16777216
102
RTVSPost2010PropOp51
 70
     0
102
RTVSPost2010Prop52
140
1.0
102
RTVSPost2010PropOp52
 70
     0
102
RTVSPost2010Prop53
 90
        2
102
RTVSPost2010PropOp53
 70
     1
102
RTVSPost2010Prop54
  1
strokes_ogs.tif
102
RTVSPost2010PropOp54
 70
     1
102
RTVSPost2010Prop55
280
     0
102
RTVSPost2010PropOp55
 70
     1
102
RTVSPost2010Prop56
140
1.0
102
RTVSPost2010PropOp56
 70
     1
102
RTVSPost2010Prop57
140
1.0
102
RTVSPost2010PropOp57
 70
     1
  0
XRECORD
  5
135
102
{ACAD_REACTORS
330
134
102
}
330
134
100
AcDbXrecord
280
     1
102
RTVSPost2010Prop28
280
     0
102
RTVSPost2010PropOp28
 70
     1
102
RTVSPost2010Prop29
280
     1
102
RTVSPost2010PropOp29
 70
     1
102
RTVSPost2010Prop30
280
     1
102
RTVSPost2010PropOp30
 70
     1
102
RTVSPost2010Prop31
280
     0
102
RTVSPost2010PropOp31
 70
     1
102
RTVSPost2010Prop32
280
     0
102
RTVSPost2010PropOp32
 70
     1
102
RTVSPost2010Prop33
280
     0
102
RTVSPost2010PropOp33
 70
     1
102
RTVSPost2010Prop34
280
     0
102
RTVSPost2010PropOp34
 70
     1
102
RTVSPost2010Prop35
280
     0
102
RTVSPost2010PropOp35
 70
     1
102
RTVSPost2010Prop36
280
     0
102
RTVSPost2010PropOp36
 70
     1
102
RTVSPost2010Prop37
 90
       50
102
RTVSPost2010PropOp37
 70
     1
102
RTVSPost2010Prop38
140
0.0
102
RTVSPost2010PropOp38
 70
     1
102
RTVSPost2010Prop39
140
1.0
102
RTVSPost2010PropOp39
 70
     1
102
RTVSPost2010Prop40
 90
        0
102
RTVSPost2010PropOp40
 70
     1
102
RTVSPost2010Prop41ColorIndex
 90
       18
102
RTVSPost2010Prop41ColorRGB
 90
        0
102
RTVSPost2010PropOp41
 70
     1
102
RTVSPost2010Prop42
 90
       50
102
RTVSPost2010PropOp42
 70
     1
102
RTVSPost2010Prop43
 90
        3
102
RTVSPost2010PropOp43
 70
     1
102
RTVSPost2010Prop44ColorIndex
 90
        5
102
RTVSPost2010Prop44ColorRGB
 90
      255
102
RTVSPost2010PropOp44
 70
     1
102
RTVSPost2010Prop45
280
     0
102
RTVSPost2010PropOp45
 70
     1
102
RTVSPost2010Prop46
 90
       50
102
RTVSPost2010PropOp46
 70
     1
102
RTVSPost2010Prop47
 90
       50
102
RTVSPost2010PropOp47
 70
     1
102
RTVSPost2010Prop48
 90
       50
102
RTVSPost2010PropOp48
 70
     1
102
RTVSPost2010Prop49
280
     0
102
RTVSPost2010PropOp49
 70
     1
102
RTVSPost2010Prop50
 90
       50
102
RTVSPost2010PropOp50
 70
     1
102
RTVSPost2010Prop51ColorIndex
 90
      256
102
RTVSPost2010Prop51ColorRGB
 90
-16777216
102
RTVSPost2010PropOp51
 70
     0
102
RTVSPost2010Prop52
140
1.0
102
RTVSPost2010PropOp52
 70
     0
102
RTVSPost2010Prop53
 90
        2
102
RTVSPost2010PropOp53
 70
     1
102
RTVSPost2010Prop54
  1
strokes_ogs.tif
102
RTVSPost2010PropOp54
 70
     1
102
RTVSPost2010Prop55
280
     0
102
RTVSPost2010PropOp55
 70
     1
102
RTVSPost2010Prop56
140
1.0
102
RTVSPost2010PropOp56
 70
     1
102
RTVSPost2010Prop57
140
1.0
102
RTVSPost2010PropOp57
 70
     1
  0
XRECORD
  5
12F
102
{ACAD_REACTORS
330
12E
102
}
330
12E
100
AcDbXrecord
280
     1
102
RTVSPost2010Prop28
280
     0
102
RTVSPost2010PropOp28
 70
     1
102
RTVSPost2010Prop29
280
     1
102
RTVSPost2010PropOp29
 70
     1
102
RTVSPost2010Prop30
280
     1
102
RTVSPost2010PropOp30
 70
     1
102
RTVSPost2010Prop31
280
     0
102
RTVSPost2010PropOp31
 70
     1
102
RTVSPost2010Prop32
280
     0
102
RTVSPost2010PropOp32
 70
     1
102
RTVSPost2010Prop33
280
     0
102
RTVSPost2010PropOp33
 70
     1
102
RTVSPost2010Prop34
280
     0
102
RTVSPost2010PropOp34
 70
     1
102
RTVSPost2010Prop35
280
     0
102
RTVSPost2010PropOp35
 70
     1
102
RTVSPost2010Prop36
280
     0
102
RTVSPost2010PropOp36
 70
     1
102
RTVSPost2010Prop37
 90
       50
102
RTVSPost2010PropOp37
 70
     1
102
RTVSPost2010Prop38
140
0.0
102
RTVSPost2010PropOp38
 70
     1
102
RTVSPost2010Prop39
140
1.0
102
RTVSPost2010PropOp39
 70
     1
102
RTVSPost2010Prop40
 90
        0
102
RTVSPost2010PropOp40
 70
     1
102
RTVSPost2010Prop41ColorIndex
 90
       18
102
RTVSPost2010Prop41ColorRGB
 90
        0
102
RTVSPost2010PropOp41
 70
     1
102
RTVSPost2010Prop42
 90
       50
102
RTVSPost2010PropOp42
 70
     1
102
RTVSPost2010Prop43
 90
        3
102
RTVSPost2010PropOp43
 70
     1
102
RTVSPost2010Prop44ColorIndex
 90
        5
102
RTVSPost2010Prop44ColorRGB
 90
      255
102
RTVSPost2010PropOp44
 70
     1
102
RTVSPost2010Prop45
280
     0
102
RTVSPost2010PropOp45
 70
     1
102
RTVSPost2010Prop46
 90
       50
102
RTVSPost2010PropOp46
 70
     1
102
RTVSPost2010Prop47
 90
       50
102
RTVSPost2010PropOp47
 70
     1
102
RTVSPost2010Prop48
 90
       50
102
RTVSPost2010PropOp48
 70
     1
102
RTVSPost2010Prop49
280
     0
102
RTVSPost2010PropOp49
 70
     1
102
RTVSPost2010Prop50
 90
       50
102
RTVSPost2010PropOp50
 70
     1
102
RTVSPost2010Prop51ColorIndex
 90
      256
102
RTVSPost2010Prop51ColorRGB
 90
-16777216
102
RTVSPost2010PropOp51
 70
     0
102
RTVSPost2010Prop52
140
1.0
102
RTVSPost2010PropOp52
 70
     0
102
RTVSPost2010Prop53
 90
        2
102
RTVSPost2010PropOp53
 70
     1
102
RTVSPost2010Prop54
  1
strokes_ogs.tif
102
RTVSPost2010PropOp54
 70
     1
102
RTVSPost2010Prop55
280
     0
102
RTVSPost2010PropOp55
 70
     1
102
RTVSPost2010Prop56
140
1.0
102
RTVSPost2010PropOp56
 70
     1
102
RTVSPost2010Prop57
140
1.0
102
RTVSPost2010PropOp57
 70
     1
  0
XRECORD
  5
131
102
{ACAD_REACTORS
330
130
102
}
330
130
100
AcDbXrecord
280
     1
102
RTVSPost2010Prop28
280
     0
102
RTVSPost2010PropOp28
 70
     1
102
RTVSPost2010Prop29
280
     1
102
RTVSPost2010PropOp29
 70
     1
102
RTVSPost2010Prop30
280
     1
102
RTVSPost2010PropOp30
 70
     1
102
RTVSPost2010Prop31
280
     0
102
RTVSPost2010PropOp31
 70
     1
102
RTVSPost2010Prop32
280
     0
102
RTVSPost2010PropOp32
 70
     1
102
RTVSPost2010Prop33
280
     0
102
RTVSPost2010PropOp33
 70
     1
102
RTVSPost2010Prop34
280
     0
102
RTVSPost2010PropOp34
 70
     1
102
RTVSPost2010Prop35
280
     0
102
RTVSPost2010PropOp35
 70
     1
102
RTVSPost2010Prop36
280
     0
102
RTVSPost2010PropOp36
 70
     1
102
RTVSPost2010Prop37
 90
       50
102
RTVSPost2010PropOp37
 70
     1
102
RTVSPost2010Prop38
140
0.0
102
RTVSPost2010PropOp38
 70
     1
102
RTVSPost2010Prop39
140
1.0
102
RTVSPost2010PropOp39
 70
     1
102
RTVSPost2010Prop40
 90
        0
102
RTVSPost2010PropOp40
 70
     1
102
RTVSPost2010Prop41ColorIndex
 90
       18
102
RTVSPost2010Prop41ColorRGB
 90
        0
102
RTVSPost2010PropOp41
 70
     1
102
RTVSPost2010Prop42
 90
       50
102
RTVSPost2010PropOp42
 70
     1
102
RTVSPost2010Prop43
 90
        3
102
RTVSPost2010PropOp43
 70
     1
102
RTVSPost2010Prop44ColorIndex
 90
        5
102
RTVSPost2010Prop44ColorRGB
 90
      255
102
RTVSPost2010PropOp44
 70
     1
102
RTVSPost2010Prop45
280
     0
102
RTVSPost2010PropOp45
 70
     1
102
RTVSPost2010Prop46
 90
       50
102
RTVSPost2010PropOp46
 70
     1
102
RTVSPost2010Prop47
 90
       50
102
RTVSPost2010PropOp47
 70
     1
102
RTVSPost2010Prop48
 90
       50
102
RTVSPost2010PropOp48
 70
     1
102
RTVSPost2010Prop49
280
     0
102
RTVSPost2010PropOp49
 70
     1
102
RTVSPost2010Prop50
 90
       50
102
RTVSPost2010PropOp50
 70
     1
102
RTVSPost2010Prop51ColorIndex
 90
      256
102
RTVSPost2010Prop51ColorRGB
 90
-16777216
102
RTVSPost2010PropOp51
 70
     0
102
RTVSPost2010Prop52
140
1.0
102
RTVSPost2010PropOp52
 70
     0
102
RTVSPost2010Prop53
 90
        2
102
RTVSPost2010PropOp53
 70
     1
102
RTVSPost2010Prop54
  1
strokes_ogs.tif
102
RTVSPost2010PropOp54
 70
     1
102
RTVSPost2010Prop55
280
     0
102
RTVSPost2010PropOp55
 70
     1
102
RTVSPost2010Prop56
140
1.0
102
RTVSPost2010PropOp56
 70
     1
102
RTVSPost2010Prop57
140
1.0
102
RTVSPost2010PropOp57
 70
     1
  0
XRECORD
  5
127
102
{ACAD_REACTORS
330
126
102
}
330
126
100
AcDbXrecord
280
     1
102
RTVSPost2010Prop28
280
     0
102
RTVSPost2010PropOp28
 70
     1
102
RTVSPost2010Prop29
280
     1
102
RTVSPost2010PropOp29
 70
     1
102
RTVSPost2010Prop30
280
     1
102
RTVSPost2010PropOp30
 70
     1
102
RTVSPost2010Prop31
280
     0
102
RTVSPost2010PropOp31
 70
     1
102
RTVSPost2010Prop32
280
     0
102
RTVSPost2010PropOp32
 70
     1
102
RTVSPost2010Prop33
280
     0
102
RTVSPost2010PropOp33
 70
     1
102
RTVSPost2010Prop34
280
     0
102
RTVSPost2010PropOp34
 70
     1
102
RTVSPost2010Prop35
280
     0
102
RTVSPost2010PropOp35
 70
     1
102
RTVSPost2010Prop36
280
     0
102
RTVSPost2010PropOp36
 70
     1
102
RTVSPost2010Prop37
 90
       50
102
RTVSPost2010PropOp37
 70
     1
102
RTVSPost2010Prop38
140
0.0
102
RTVSPost2010PropOp38
 70
     1
102
RTVSPost2010Prop39
140
1.0
102
RTVSPost2010PropOp39
 70
     1
102
RTVSPost2010Prop40
 90
        0
102
RTVSPost2010PropOp40
 70
     1
102
RTVSPost2010Prop41ColorIndex
 90
       18
102
RTVSPost2010Prop41ColorRGB
 90
        0
102
RTVSPost2010PropOp41
 70
     1
102
RTVSPost2010Prop42
 90
       50
102
RTVSPost2010PropOp42
 70
     1
102
RTVSPost2010Prop43
 90
        3
102
RTVSPost2010PropOp43
 70
     1
102
RTVSPost2010Prop44ColorIndex
 90
        5
102
RTVSPost2010Prop44ColorRGB
 90
      255
102
RTVSPost2010PropOp44
 70
     1
102
RTVSPost2010Prop45
280
     0
102
RTVSPost2010PropOp45
 70
     1
102
RTVSPost2010Prop46
 90
       50
102
RTVSPost2010PropOp46
 70
     1
102
RTVSPost2010Prop47
 90
       50
102
RTVSPost2010PropOp47
 70
     1
102
RTVSPost2010Prop48
 90
       50
102
RTVSPost2010PropOp48
 70
     1
102
RTVSPost2010Prop49
280
     0
102
RTVSPost2010PropOp49
 70
     1
102
RTVSPost2010Prop50
 90
       50
102
RTVSPost2010PropOp50
 70
     1
102
RTVSPost2010Prop51ColorIndex
 90
      256
102
RTVSPost2010Prop51ColorRGB
 90
-16777216
102
RTVSPost2010PropOp51
 70
     0
102
RTVSPost2010Prop52
140
1.0
102
RTVSPost2010PropOp52
 70
     0
102
RTVSPost2010Prop53
 90
        2
102
RTVSPost2010PropOp53
 70
     1
102
RTVSPost2010Prop54
  1
strokes_ogs.tif
102
RTVSPost2010PropOp54
 70
     1
102
RTVSPost2010Prop55
280
     0
102
RTVSPost2010PropOp55
 70
     1
102
RTVSPost2010Prop56
140
1.0
102
RTVSPost2010PropOp56
 70
     1
102
RTVSPost2010Prop57
140
1.0
102
RTVSPost2010PropOp57
 70
     1
  0
XRECORD
  5
11B
102
{ACAD_REACTORS
330
11A
102
}
330
11A
100
AcDbXrecord
280
     1
102
RTVSPost2010Prop28
280
     0
102
RTVSPost2010PropOp28
 70
     1
102
RTVSPost2010Prop29
280
     1
102
RTVSPost2010PropOp29
 70
     1
102
RTVSPost2010Prop30
280
     1
102
RTVSPost2010PropOp30
 70
     1
102
RTVSPost2010Prop31
280
     0
102
RTVSPost2010PropOp31
 70
     1
102
RTVSPost2010Prop32
280
     0
102
RTVSPost2010PropOp32
 70
     1
102
RTVSPost2010Prop33
280
     0
102
RTVSPost2010PropOp33
 70
     1
102
RTVSPost2010Prop34
280
     0
102
RTVSPost2010PropOp34
 70
     1
102
RTVSPost2010Prop35
280
     0
102
RTVSPost2010PropOp35
 70
     1
102
RTVSPost2010Prop36
280
     0
102
RTVSPost2010PropOp36
 70
     1
102
RTVSPost2010Prop37
 90
       50
102
RTVSPost2010PropOp37
 70
     1
102
RTVSPost2010Prop38
140
0.0
102
RTVSPost2010PropOp38
 70
     1
102
RTVSPost2010Prop39
140
1.0
102
RTVSPost2010PropOp39
 70
     1
102
RTVSPost2010Prop40
 90
        0
102
RTVSPost2010PropOp40
 70
     1
102
RTVSPost2010Prop41ColorIndex
 90
       18
102
RTVSPost2010Prop41ColorRGB
 90
        0
102
RTVSPost2010PropOp41
 70
     1
102
RTVSPost2010Prop42
 90
       50
102
RTVSPost2010PropOp42
 70
     1
102
RTVSPost2010Prop43
 90
        3
102
RTVSPost2010PropOp43
 70
     1
102
RTVSPost2010Prop44ColorIndex
 90
        5
102
RTVSPost2010Prop44ColorRGB
 90
      255
102
RTVSPost2010PropOp44
 70
     1
102
RTVSPost2010Prop45
280
     0
102
RTVSPost2010PropOp45
 70
     1
102
RTVSPost2010Prop46
 90
       50
102
RTVSPost2010PropOp46
 70
     1
102
RTVSPost2010Prop47
 90
       50
102
RTVSPost2010PropOp47
 70
     1
102
RTVSPost2010Prop48
 90
       50
102
RTVSPost2010PropOp48
 70
     1
102
RTVSPost2010Prop49
280
     0
102
RTVSPost2010PropOp49
 70
     1
102
RTVSPost2010Prop50
 90
       50
102
RTVSPost2010PropOp50
 70
     1
102
RTVSPost2010Prop51ColorIndex
 90
      256
102
RTVSPost2010Prop51ColorRGB
 90
-16777216
102
RTVSPost2010PropOp51
 70
     0
102
RTVSPost2010Prop52
140
1.0
102
RTVSPost2010PropOp52
 70
     0
102
RTVSPost2010Prop53
 90
        2
102
RTVSPost2010PropOp53
 70
     1
102
RTVSPost2010Prop54
  1
strokes_ogs.tif
102
RTVSPost2010PropOp54
 70
     1
102
RTVSPost2010Prop55
280
     0
102
RTVSPost2010PropOp55
 70
     1
102
RTVSPost2010Prop56
140
1.0
102
RTVSPost2010PropOp56
 70
     1
102
RTVSPost2010Prop57
140
1.0
102
RTVSPost2010PropOp57
 70
     1
  0
XRECORD
  5
133
102
{ACAD_REACTORS
330
132
102
}
330
132
100
AcDbXrecord
280
     1
102
RTVSPost2010Prop28
280
     0
102
RTVSPost2010PropOp28
 70
     1
102
RTVSPost2010Prop29
280
     1
102
RTVSPost2010PropOp29
 70
     1
102
RTVSPost2010Prop30
280
     1
102
RTVSPost2010PropOp30
 70
     1
102
RTVSPost2010Prop31
280
     0
102
RTVSPost2010PropOp31
 70
     1
102
RTVSPost2010Prop32
280
     0
102
RTVSPost2010PropOp32
 70
     1
102
RTVSPost2010Prop33
280
     0
102
RTVSPost2010PropOp33
 70
     1
102
RTVSPost2010Prop34
280
     0
102
RTVSPost2010PropOp34
 70
     1
102
RTVSPost2010Prop35
280
     0
102
RTVSPost2010PropOp35
 70
     1
102
RTVSPost2010Prop36
280
     0
102
RTVSPost2010PropOp36
 70
     1
102
RTVSPost2010Prop37
 90
       50
102
RTVSPost2010PropOp37
 70
     1
102
RTVSPost2010Prop38
140
0.0
102
RTVSPost2010PropOp38
 70
     1
102
RTVSPost2010Prop39
140
1.0
102
RTVSPost2010PropOp39
 70
     1
102
RTVSPost2010Prop40
 90
        0
102
RTVSPost2010PropOp40
 70
     1
102
RTVSPost2010Prop41ColorIndex
 90
       18
102
RTVSPost2010Prop41ColorRGB
 90
        0
102
RTVSPost2010PropOp41
 70
     1
102
RTVSPost2010Prop42
 90
       50
102
RTVSPost2010PropOp42
 70
     1
102
RTVSPost2010Prop43
 90
        3
102
RTVSPost2010PropOp43
 70
     1
102
RTVSPost2010Prop44ColorIndex
 90
        5
102
RTVSPost2010Prop44ColorRGB
 90
      255
102
RTVSPost2010PropOp44
 70
     1
102
RTVSPost2010Prop45
280
     0
102
RTVSPost2010PropOp45
 70
     1
102
RTVSPost2010Prop46
 90
       50
102
RTVSPost2010PropOp46
 70
     1
102
RTVSPost2010Prop47
 90
       50
102
RTVSPost2010PropOp47
 70
     1
102
RTVSPost2010Prop48
 90
       50
102
RTVSPost2010PropOp48
 70
     1
102
RTVSPost2010Prop49
280
     0
102
RTVSPost2010PropOp49
 70
     1
102
RTVSPost2010Prop50
 90
       50
102
RTVSPost2010PropOp50
 70
     1
102
RTVSPost2010Prop51ColorIndex
 90
      256
102
RTVSPost2010Prop51ColorRGB
 90
-16777216
102
RTVSPost2010PropOp51
 70
     0
102
RTVSPost2010Prop52
140
1.0
102
RTVSPost2010PropOp52
 70
     0
102
RTVSPost2010Prop53
 90
        2
102
RTVSPost2010PropOp53
 70
     1
102
RTVSPost2010Prop54
  1
strokes_ogs.tif
102
RTVSPost2010PropOp54
 70
     1
102
RTVSPost2010Prop55
280
     0
102
RTVSPost2010PropOp55
 70
     1
102
RTVSPost2010Prop56
140
1.0
102
RTVSPost2010PropOp56
 70
     1
102
RTVSPost2010Prop57
140
1.0
102
RTVSPost2010PropOp57
 70
     1
  0
ENDSEC
  0
EOF
