  0
SECTION
  2
HEADER
  9
$ACADVER
  1
AC1018
  9
$ACADMAINTVER
 70
   104
  9
$DWGCODEPAGE
  3
ANSI_1252
  9
$LASTSAVEDBY
  1
a.buchhorn
  9
$CUSTOMPROPERTYTAG
  1
AmdtFileType
  9
$CUSTOMPROPERTY
  1
82
  9
$INSBASE
 10
0.0
 20
0.0
 30
0.0
  9
$EXTMIN
 10
-130.0
 20
-780.5
 30
-70.00013732910156
  9
$EXTMAX
 10
130.0
 20
780.5
 30
0.0001144409179688
  9
$LIMMIN
 10
0.0
 20
0.0
  9
$LIMMAX
 10
1189.0
 20
841.0
  9
$ORTHOMODE
 70
     0
  9
$REGENMODE
 70
     1
  9
$FILLMODE
 70
     1
  9
$QTEXTMODE
 70
     0
  9
$MIRRTEXT
 70
     1
  9
$LTSCALE
 40
1.0
  9
$ATTMODE
 70
     1
  9
$TEXTSIZE
 40
2.5
  9
$TRACEWID
 40
1.0
  9
$TEXTSTYLE
  7
STANDARD
  9
$CLAYER
  8
AM_0
  9
$CELTYPE
  6
ByLayer
  9
$CECOLOR
 62
   256
  9
$CELTSCALE
 40
1.0
  9
$DISPSILH
 70
     0
  9
$DIMSCALE
 40
1.0
  9
$DIMASZ
 40
2.5
  9
$DIMEXO
 40
1.0
  9
$DIMDLI
 40
10.0
  9
$DIMRND
 40
0.0
  9
$DIMDLE
 40
0.0
  9
$DIMEXE
 40
1.0
  9
$DIMTP
 40
0.1
  9
$DIMTM
 40
0.1
  9
$DIMTXT
 40
3.5
  9
$DIMCEN
 40
0.0
  9
$DIMTSZ
 40
0.0
  9
$DIMTOL
 70
     0
  9
$DIMLIM
 70
     0
  9
$DIMTIH
 70
     0
  9
$DIMTOH
 70
     0
  9
$DIMSE1
 70
     0
  9
$DIMSE2
 70
     0
  9
$DIMTAD
 70
     1
  9
$DIMZIN
 70
     8
  9
$DIMBLK
  1

  9
$DIMASO
 70
     1
  9
$DIMSHO
 70
     1
  9
$DIMPOST
  1

  9
$DIMAPOST
  1
""
  9
$DIMALT
 70
     0
  9
$DIMALTD
 70
     2
  9
$DIMALTF
 40
0.0393701
  9
$DIMLFAC
 40
1.0
  9
$DIMTOFL
 70
     1
  9
$DIMTVP
 40
0.0
  9
$DIMTIX
 70
     0
  9
$DIMSOXD
 70
     0
  9
$DIMSAH
 70
     0
  9
$DIMBLK1
  1

  9
$DIMBLK2
  1

  9
$DIMSTYLE
  2
AM_ISO
  9
$DIMCLRD
 70
   256
  9
$DIMCLRE
 70
   256
  9
$DIMCLRT
 70
     2
  9
$DIMTFAC
 40
0.71
  9
$DIMGAP
 40
1.5
  9
$DIMJUST
 70
     0
  9
$DIMSD1
 70
     0
  9
$DIMSD2
 70
     0
  9
$DIMTOLJ
 70
     0
  9
$DIMTZIN
 70
     0
  9
$DIMALTZ
 70
     0
  9
$DIMALTTZ
 70
     0
  9
$DIMUPT
 70
     0
  9
$DIMDEC
 70
     1
  9
$DIMTDEC
 70
     1
  9
$DIMALTU
 70
     2
  9
$DIMALTTD
 70
     4
  9
$DIMTXSTY
  7
STANDARD
  9
$DIMAUNIT
 70
     0
  9
$DIMADEC
 70
     0
  9
$DIMALTRND
 40
0.0
  9
$DIMAZIN
 70
     2
  9
$DIMDSEP
 70
    46
  9
$DIMATFIT
 70
     3
  9
$DIMFRAC
 70
     0
  9
$DIMLDRBLK
  1

  9
$DIMLUNIT
 70
     2
  9
$DIMLWD
 70
    -1
  9
$DIMLWE
 70
    -1
  9
$DIMTMOVE
 70
     0
  9
$LUNITS
 70
     2
  9
$LUPREC
 70
     4
  9
$SKETCHINC
 40
1.0
  9
$FILLETRAD
 40
2.5
  9
$AUNITS
 70
     0
  9
$AUPREC
 70
     0
  9
$MENU
  1
.
  9
$ELEVATION
 40
0.0
  9
$PELEVATION
 40
0.0
  9
$THICKNESS
 40
0.0
  9
$LIMCHECK
 70
     0
  9
$CHAMFERA
 40
2.5
  9
$CHAMFERB
 40
2.5
  9
$CHAMFERC
 40
20.0
  9
$CHAMFERD
 40
0.0
  9
$SKPOLY
 70
     0
  9
$TDCREATE
 40
2454595.632024421
  9
$TDUCREATE
 40
2454595.548691088
  9
$TDUPDATE
 40
2454595.632995556
  9
$TDUUPDATE
 40
2454595.549662222
  9
$TDINDWG
 40
0.0002575231
  9
$TDUSRTIMER
 40
0.0002573495
  9
$USRTIMER
 70
     1
  9
$ANGBASE
 50
0.0
  9
$ANGDIR
 70
     0
  9
$PDMODE
 70
     3
  9
$PDSIZE
 40
0.0
  9
$PLINEWID
 40
0.0
  9
$SPLFRAME
 70
     0
  9
$SPLINETYPE
 70
     6
  9
$SPLINESEGS
 70
     8
  9
$HANDSEED
  5
9FC
  9
$SURFTAB1
 70
     6
  9
$SURFTAB2
 70
     6
  9
$SURFTYPE
 70
     6
  9
$SURFU
 70
     6
  9
$SURFV
 70
     6
  9
$UCSBASE
  2

  9
$UCSNAME
  2

  9
$UCSORG
 10
0.0
 20
0.0
 30
0.0
  9
$UCSXDIR
 10
1.0
 20
0.0
 30
0.0
  9
$UCSYDIR
 10
0.0
 20
1.0
 30
0.0
  9
$UCSORTHOREF
  2

  9
$UCSORTHOVIEW
 70
     0
  9
$UCSORGTOP
 10
0.0
 20
0.0
 30
0.0
  9
$UCSORGBOTTOM
 10
0.0
 20
0.0
 30
0.0
  9
$UCSORGLEFT
 10
0.0
 20
0.0
 30
0.0
  9
$UCSORGRIGHT
 10
0.0
 20
0.0
 30
0.0
  9
$UCSORGFRONT
 10
0.0
 20
0.0
 30
0.0
  9
$UCSORGBACK
 10
0.0
 20
0.0
 30
0.0
  9
$PUCSBASE
  2

  9
$PUCSNAME
  2

  9
$PUCSORG
 10
0.0
 20
0.0
 30
0.0
  9
$PUCSXDIR
 10
1.0
 20
0.0
 30
0.0
  9
$PUCSYDIR
 10
0.0
 20
1.0
 30
0.0
  9
$PUCSORTHOREF
  2

  9
$PUCSORTHOVIEW
 70
     0
  9
$PUCSORGTOP
 10
0.0
 20
0.0
 30
0.0
  9
$PUCSORGBOTTOM
 10
0.0
 20
0.0
 30
0.0
  9
$PUCSORGLEFT
 10
0.0
 20
0.0
 30
0.0
  9
$PUCSORGRIGHT
 10
0.0
 20
0.0
 30
0.0
  9
$PUCSORGFRONT
 10
0.0
 20
0.0
 30
0.0
  9
$PUCSORGBACK
 10
0.0
 20
0.0
 30
0.0
  9
$USERI1
 70
     0
  9
$USERI2
 70
     0
  9
$USERI3
 70
     0
  9
$USERI4
 70
     0
  9
$USERI5
 70
     0
  9
$USERR1
 40
0.0
  9
$USERR2
 40
0.0
  9
$USERR3
 40
0.0
  9
$USERR4
 40
0.0
  9
$USERR5
 40
0.0
  9
$WORLDVIEW
 70
     1
  9
$SHADEDGE
 70
     3
  9
$SHADEDIF
 70
    70
  9
$TILEMODE
 70
     1
  9
$MAXACTVP
 70
    64
  9
$PINSBASE
 10
0.0
 20
0.0
 30
0.0
  9
$PLIMCHECK
 70
     0
  9
$PEXTMIN
 10
1.000000000000000E+20
 20
1.000000000000000E+20
 30
1.000000000000000E+20
  9
$PEXTMAX
 10
-1.000000000000000E+20
 20
-1.000000000000000E+20
 30
-1.000000000000000E+20
  9
$PLIMMIN
 10
-5.8187255859375
 20
-5.793749809265136
  9
$PLIMMAX
 10
1183.181274414062
 20
835.2062501907349
  9
$UNITMODE
 70
     0
  9
$VISRETAIN
 70
     1
  9
$PLINEGEN
 70
     0
  9
$PSLTSCALE
 70
     0
  9
$TREEDEPTH
 70
  3020
  9
$CMLSTYLE
  2
Standard
  9
$CMLJUST
 70
     0
  9
$CMLSCALE
 40
20.0
  9
$PROXYGRAPHICS
 70
     1
  9
$MEASUREMENT
 70
     1
  9
$CELWEIGHT
370
    -1
  9
$ENDCAPS
280
     0
  9
$JOINSTYLE
280
     0
  9
$LWDISPLAY
290
     0
  9
$INSUNITS
 70
     4
  9
$HYPERLINKBASE
  1

  9
$STYLESHEET
  1
siteco.ctb
  9
$XEDIT
290
     1
  9
$CEPSNTYPE
380
     0
  9
$PSTYLEMODE
290
     1
  9
$FINGERPRINTGUID
  2
{B2FF038C-1609-4714-9C5D-5F6C0A0CCD08}
  9
$VERSIONGUID
  2
{9CB75DF8-DC25-4CEE-A03D-3E731F6C5549}
  9
$EXTNAMES
290
     1
  9
$PSVPSCALE
 40
0.0
  9
$OLESTARTUP
290
     0
  9
$SORTENTS
280
   127
  9
$INDEXCTL
280
     0
  9
$HIDETEXT
280
     0
  9
$XCLIPFRAME
290
     0
  9
$HALOGAP
280
     0
  9
$OBSCOLOR
 70
   257
  9
$OBSLTYPE
280
     0
  9
$INTERSECTIONDISPLAY
280
     0
  9
$INTERSECTIONCOLOR
 70
   257
  9
$DIMASSOC
280
     1
  9
$PROJECTNAME
  1

  0
ENDSEC
  0
SECTION
  2
CLASSES
  0
CLASS
  1
ACDBDICTIONARYWDFLT
  2
AcDbDictionaryWithDefault
  3
ObjectDBX Classes
 90
        0
 91
        1
280
     0
281
     0
  0
CLASS
  1
ACMESTATEMGR
  2
AcMeStateMgr
  3
AcMeServices
 90
     1024
 91
        1
280
     0
281
     0
  0
CLASS
  1
ACME_DOCUMENT
  2
AcMeDbDoc
  3
AcMeServices
 90
     1024
 91
        2
280
     0
281
     0
  0
CLASS
  1
ACMESCOPE
  2
AcMeScope
  3
AcMeServices
 90
     1024
 91
        1
280
     0
281
     0
  0
CLASS
  1
ACMECOMMANDHISTORY
  2
AcMeCommandHistory
  3
AcMeServices
 90
     1024
 91
        1
280
     0
281
     0
  0
CLASS
  1
DICTIONARYVAR
  2
AcDbDictionaryVar
  3
ObjectDBX Classes
 90
        0
 91
        7
280
     0
281
     0
  0
CLASS
  1
ACIMSYSVARMAN
  2
AcImSysVarManager
  3
AcMeServices
 90
     1024
 91
        5
280
     0
281
     0
  0
CLASS
  1
ACIMREALSYSVAR
  2
AcImRealSysVar
  3
AcMeServices
 90
     1024
 91
        3
280
     0
281
     0
  0
CLASS
  1
ACIMINTSYSVAR
  2
AcImIntSysVar
  3
AcMeServices
 90
     1024
 91
       28
280
     0
281
     0
  0
CLASS
  1
ACMEDRAWINGMAN
  2
AcMeDrawingMan
  3
AcMeServices
 90
     1024
 91
        1
280
     0
281
     0
  0
CLASS
  1
ACMEVIEW
  2
AcMeView
  3
AcMeServices
 90
     1024
 91
        1
280
     0
281
     0
  0
CLASS
  1
ACDBENTITYCACHE
  2
AcMeEntityCache
  3
AcMeServices
 90
     1024
 91
        1
280
     0
281
     0
  0
CLASS
  1
GSMANAGER
  2
AcMeGSManager
  3
AcMeServices
 90
     1024
 91
        1
280
     0
281
     0
  0
CLASS
  1
AMDTINTERNALREACTOR
  2
AmdtInternalReactor
  3
AcMeServices
 90
     1024
 91
        2
280
     0
281
     0
  0
CLASS
  1
ACME_DATABASE
  2
AcMeDbDatabase
  3
AcMeServices
 90
     1024
 91
        1
280
     0
281
     0
  0
CLASS
  1
ACRFINSADJUSTERMGR
  2
AcRfInsAdjusterMgr
  3
AcMeServices
 90
     1024
 91
        1
280
     0
281
     0
  0
CLASS
  1
AMGSETTINGSOBJ
  2
AmgSettingsObj
  3
"AcadM|Product Description: AutoCAD Mechanical|Company: Autodesk, Inc."
 90
     1024
 91
        5
280
     0
281
     0
  0
CLASS
  1
AMGOBJPROPCFG
  2
AmgObjPropCfg
  3
"AmgLay|Product Description: AutoCAD Mechanical|Company: Autodesk, Inc."
 90
     1025
 91
        1
280
     0
281
     0
  0
CLASS
  1
ACMDATADICTIONARY
  2
AcmDataDictionary
  3
"AcmSymBB|Product Description: AutoCAD Mechanical|Company: Autodesk, Inc."
 90
     1024
 91
        1
280
     0
281
     0
  0
CLASS
  1
ACMDATAENTRYBLOCK
  2
AcmDataEntryBlock
  3
AcmSymBB|Product Description: AutoCAD Mechanical|Company: Autodesk, Inc.
 90
     1024
 91
        1
280
     0
281
     0
  0
CLASS
  1
ACAMGFILTERDAT
  2
AcAmgFilterDat
  3
"AcadM|Product Description: AutoCAD Mechanical|Company: Autodesk, Inc."
 90
     1024
 91
        4
280
     0
281
     0
  0
CLASS
  1
ACIMSTRSYSVAR
  2
AcImStrSysVar
  3
AcMeServices
 90
     1024
 91
        5
280
     0
281
     0
  0
CLASS
  1
ACMSTANDARDISO
  2
AcmStandardISO
  3
"Amdt_StdImp|Product Description: AutoCAD Mechanical|Company: Autodesk, Inc."
 90
     1024
 91
        1
280
     0
281
     0
  0
CLASS
  1
AMDTEDGESTANDARDISO
  2
AmdtEdgeStdISO
  3
"Amdt_StdImp|Product Description: AutoCAD Mechanical|Company: Autodesk, Inc."
 90
     1024
 91
        1
280
     0
281
     0
  0
CLASS
  1
ACMSURFSTANDARDISO
  2
AcmSurfTextStdISO
  3
"Amdt_StdImp|Product Description: AutoCAD Mechanical|Company: Autodesk, Inc."
 90
     1024
 91
        1
280
     0
281
     0
  0
CLASS
  1
ACMFCFSTANDARDISO
  2
AcmFCFStdISO
  3
"Amdt_StdImp|Product Description: AutoCAD Mechanical|Company: Autodesk, Inc."
 90
     1024
 91
        1
280
     0
281
     0
  0
CLASS
  1
ACMWELDSTANDARDISO
  2
AcmWeldingStdISO
  3
"Amdt_StdImp|Product Description: AutoCAD Mechanical|Company: Autodesk, Inc."
 90
     1024
 91
        1
280
     0
281
     0
  0
CLASS
  1
ACMIDSTANDARDISO
  2
AcmIdStdISO
  3
"Amdt_StdImp|Product Description: AutoCAD Mechanical|Company: Autodesk, Inc."
 90
     1024
 91
        1
280
     0
281
     0
  0
CLASS
  1
ACMDATUMSTANDARDISO
  2
AcmDatumStdISO
  3
"Amdt_StdImp|Product Description: AutoCAD Mechanical|Company: Autodesk, Inc."
 90
     1024
 91
        1
280
     0
281
     0
  0
CLASS
  1
ACMBOMSTANDARDISO
  2
AcmBOMStdISO
  3
"Amdt_StdImp|Product Description: AutoCAD Mechanical|Company: Autodesk, Inc."
 90
     1024
 91
        1
280
     0
281
     0
  0
CLASS
  1
LAYER_INDEX
  2
AcDbLayerIndex
  3
ObjectDBX Classes
 90
        0
 91
        0
280
     0
281
     0
  0
CLASS
  1
IDBUFFER
  2
AcDbIdBuffer
  3
ObjectDBX Classes
 90
        0
 91
        0
280
     0
281
     0
  0
CLASS
  1
ACGREFMASTER
  2
AcGrefMaster
  3
AcAttribServices
 90
     1024
 91
        1
280
     0
281
     0
  0
CLASS
  1
AM_DRAWING_MGR
  2
AcDmDwgMgr
  3
AcMechDwgViewMgmt
 90
     1024
 91
        1
280
     0
281
     0
  0
CLASS
  1
AM_DWG_DOCUMENT
  2
AcDmDwgDocument
  3
AcMechDwgViewMgmt
 90
     1024
 91
        1
280
     0
281
     0
  0
CLASS
  1
AM_DWG_SHEET
  2
AcDmSheet
  3
AcMechDwgViewMgmt
 90
     1024
 91
        2
280
     0
281
     0
  0
CLASS
  1
AM_VIEWDIMPARMAP
  2
AcDmViewDimParMap
  3
AcMechDwgViewMgmt
 90
     1024
 91
        2
280
     0
281
     0
  0
CLASS
  1
AM_DWGMGR_NAME
  2
AcDmDwgMgrName
  3
AcMechDwgViewMgmt
 90
     1024
 91
        1
280
     0
281
     0
  0
CLASS
  1
ACGREFACADMASTER
  2
AcGrefacadMaster
  3
AcGrefServices
 90
     1024
 91
        1
280
     0
281
     0
  0
CLASS
  1
AMDTMENUSTATEMGR
  2
AmdtMenuStateMgr
  3
McadcomServices
 90
     1024
 91
        1
280
     0
281
     0
  0
CLASS
  1
AMDTMCOMMENUSTATE
  2
AmdtMcomMenuState
  3
McadcomServices
 90
     1024
 91
        1
280
     0
281
     0
  0
CLASS
  1
AMIMASTER
  2
AmiMaster
  3
AmiServices
 90
     1024
 91
        1
280
     0
281
     0
  0
CLASS
  1
MAPIAMMOUDLE
  2
MApiAmModule
  3
MApiAmServices
 90
     1024
 91
        1
280
     0
281
     0
  0
CLASS
  1
AMDTADMENUSTATE
  2
AmdtAdMenuState
  3
DesignerServices
 90
     1024
 91
        1
280
     0
281
     0
  0
CLASS
  1
ADAPPL
  2
AcAdAppl
  3
DesignerServices
 90
     1024
 91
        1
280
     0
281
     0
  0
CLASS
  1
DEPMGR
  2
AcAdDepMgr
  3
DesignerServices
 90
     1024
 91
        1
280
     0
281
     0
  0
CLASS
  1
PARAMMGR
  2
AcAdParamMgr
  3
DesignerServices
 90
     1024
 91
        1
280
     0
281
     0
  0
CLASS
  1
PARAMSCOPE
  2
AcAdParamScope
  3
DesignerServices
 90
     1024
 91
        1
280
     0
281
     0
  0
CLASS
  1
NAMEDAPPL
  2
AcAdNamedAppl
  3
DesignerServices
 90
     1024
 91
        1
280
     0
281
     0
  0
CLASS
  1
AMDTDMMENUSTATE
  2
AmdtDmMenuState
  3
AcMechDwgViewMgmt
 90
     1024
 91
        1
280
     0
281
     0
  0
CLASS
  1
AMDTAMMENUSTATE
  2
AmdtAmMenuState
  3
DesignerAssemblies
 90
     1024
 91
        1
280
     0
281
     0
  0
CLASS
  1
ACAMPROJECT
  2
AcAmProject
  3
DesignerAssemblies
 90
     1024
 91
        1
280
     0
281
     0
  0
CLASS
  1
ACAMGRCOMPDEF
  2
AcAmGrCompDef
  3
DesignerAssemblies
 90
     1024
 91
        1
280
     0
281
     0
  0
CLASS
  1
ACCMCONTEXT
  2
AcCmContext
  3
DesignerAssemblies
 90
     1024
 91
        1
280
     0
281
     0
  0
CLASS
  1
ACAMCOMPDEF
  2
AcAmCompDef
  3
DesignerAssemblies
 90
     1024
 91
        1
280
     0
281
     0
  0
CLASS
  1
ACAMCOMPDEFMGR
  2
AcAmCompDefMgr
  3
DesignerAssemblies
 90
     1024
 91
        1
280
     0
281
     0
  0
CLASS
  1
AMCONTEXTMGR
  2
AcAmContextMgr
  3
DesignerAssemblies
 90
     1024
 91
        1
280
     0
281
     0
  0
CLASS
  1
ACAMCONTEXTMODELER
  2
AcAmContextModeler
  3
DesignerAssemblies
 90
     1024
 91
        1
280
     0
281
     0
  0
CLASS
  1
ACAMGTITLESTD
  2
AcAmgTitleStd
  3
"AmgTitle|Product Description: AutoCAD Mechanical|Company: Autodesk, Inc."
 90
     4095
 91
        1
280
     0
281
     0
  0
CLASS
  1
ACMDETAILSTANDARDISO
  2
AmdtDetailSymStdISO
  3
"Amdt_StdImp|Product Description: AutoCAD Mechanical|Company: Autodesk, Inc."
 90
     1024
 91
        1
280
     0
281
     0
  0
CLASS
  1
ACMSECTIONSTANDARDISO
  2
AmdtSectionSymStdISO
  3
"Amdt_StdImp|Product Description: AutoCAD Mechanical|Company: Autodesk, Inc."
 90
     1024
 91
        1
280
     0
281
     0
  0
CLASS
  1
ACMCENTERLINESTANDARDISO
  2
AmdtCenterLineStdISO
  3
"Amdt_StdImp|Product Description: AutoCAD Mechanical|Company: Autodesk, Inc."
 90
     1024
 91
        1
280
     0
281
     0
  0
CLASS
  1
ACMTHREADLINESTANDARDISO
  2
AmdtThreadLineStdISO
  3
"Amdt_StdImp|Product Description: AutoCAD Mechanical|Company: Autodesk, Inc."
 90
     1024
 91
        1
280
     0
281
     0
  0
CLASS
  1
ACMNOTESTANDARDISO
  2
AmdtNoteStdISO
  3
"Amdt_StdImp|Product Description: AutoCAD Mechanical|Company: Autodesk, Inc."
 90
     1024
 91
        1
280
     0
281
     0
  0
CLASS
  1
AMDTNOTETEMPLATEDB
  2
AmdtNoteTemplateDB
  3
AcmSymBB|Product Description: AutoCAD Mechanical|Company: Autodesk, Inc.
 90
     1024
 91
        4
280
     0
281
     0
  0
CLASS
  1
ACAMGLAYSTD
  2
AcAmgLayStd
  3
"AmgLay|Product Description: AutoCAD Mechanical|Company: Autodesk, Inc."
 90
     1024
 91
        1
280
     0
281
     0
  0
CLASS
  1
ACAMGDIMSTD
  2
AcAmgDimStd
  3
"AmgDim|Product Description: AutoCAD Mechanical|Company: Autodesk, Inc."
 90
     1024
 91
        1
280
     0
281
     0
  0
CLASS
  1
ACAMGHOLECHARTSTDISO
  2
AcAmgHoleChartStdISO
  3
AmgDim|Product Description: AutoCAD Mechanical|Company: Autodesk, Inc.
 90
     1024
 91
        1
280
     0
281
     0
  0
CLASS
  1
CATALOGSTATE
  2
AcAmCatalogState
  3
DesignerAssemblies
 90
     1024
 91
        1
280
     0
281
     0
  0
CLASS
  1
ACAMGRCOMPDEFSET
  2
AcAmGrCompDefSet
  3
DesignerAssemblies
 90
     1024
 91
        1
280
     0
281
     0
  0
CLASS
  1
AMDTBROWSERDBTAB
  2
AmdtBrowserDbTab
  3
McadcomServices
 90
     1024
 91
        1
280
     0
281
     0
  0
CLASS
  1
CBROWSERAPPOBJECT
  2
CBrowserAppObject
  3
McadcomServices
 90
     1024
 91
        3
280
     0
281
     0
  0
CLASS
  1
DM_PLACEHOLDER
  2
AcDmSelsetPlaceholder
  3
AcMechDwgViewMgmt
 90
     1024
 91
        1
280
     0
281
     0
  0
CLASS
  1
MATERIAL
  2
AcDbMaterial
  3
ObjectDBX Classes
 90
     1153
 91
        5
280
     0
281
     0
  0
CLASS
  1
VISUALSTYLE
  2
AcDbVisualStyle
  3
ObjectDBX Classes
 90
     4095
 91
       16
280
     0
281
     0
  0
CLASS
  1
TABLESTYLE
  2
AcDbTableStyle
  3
ObjectDBX Classes
 90
     4095
 91
        1
280
     0
281
     0
  0
CLASS
  1
SCALE
  2
AcDbScale
  3
ObjectDBX Classes
 90
     1153
 91
       33
280
     0
281
     0
  0
CLASS
  1
MLEADERSTYLE
  2
AcDbMLeaderStyle
  3
ACDB_MLEADERSTYLE_CLASS
 90
     4095
 91
        1
280
     0
281
     0
  0
CLASS
  1
ACRFATTGENMGR
  2
AcRfAttGeneralMgr
  3
AcAttribServices
 90
     1024
 91
        1
280
     0
281
     0
  0
CLASS
  1
ACRFOBJATTMGR
  2
AcRfObjAttGroupMgr
  3
AcAttribServices
 90
     1024
 91
        1
280
     0
281
     0
  0
CLASS
  1
ACRFMCADAPIATTHOLDER
  2
AcRfMCADAPIAttHolder
  3
AcAttribServices
 90
     1024
 91
        1
280
     0
281
     0
  0
CLASS
  1
AMDTSYSATTR
  2
AmdtSystemAttribute
  3
AcAttribServices
 90
     1024
 91
        1
280
     0
281
     0
  0
CLASS
  1
ACMTAPERSTANDARDISO
  2
AcmTaperStdISO
  3
"Amdt_StdImp|Product Description: AutoCAD Mechanical|Company: Autodesk, Inc."
 90
     1024
 91
        1
280
     0
281
     0
  0
CLASS
  1
ACMANOOTATIONVIEWSTANDARDISO
  2
AmdtAnViewStdISO
  3
"Amdt_StdImp|Product Description: AutoCAD Mechanical|Company: Autodesk, Inc."
 90
     1024
 91
        1
280
     0
281
     0
  0
CLASS
  1
CAMSSTRUCTBTNSTATE
  2
StructBtnState
  3
DesignerAssemblies
 90
     1024
 91
        1
280
     0
281
     0
  0
CLASS
  1
CELLSTYLEMAP
  2
AcDbCellStyleMap
  3
ObjectDBX Classes
 90
     1152
 91
        2
280
     0
281
     0
  0
ENDSEC
  0
SECTION
  2
TABLES
  0
TABLE
  2
VPORT
  5
8
330
0
100
AcDbSymbolTable
 70
     1
  0
VPORT
  5
4C0
330
8
100
AcDbSymbolTableRecord
100
AcDbViewportTableRecord
  2
*Active
 70
     0
 10
0.0
 20
0.0
 11
1.0
 21
1.0
 12
108.6743426016892
 22
-28.57738967653228
 13
0.0
 23
0.0
 14
2.5
 24
2.5
 15
10.0
 25
10.0
 16
1.0
 26
1.0
 36
1.0
 17
0.0
 27
0.0
 37
0.0
 40
816.2093801352595
 41
1.851851851851851
 42
50.0
 43
0.0
 44
0.0
 50
0.0
 51
0.0
 71
     0
 72
   100
 73
     1
 74
     3
 75
     0
 76
     0
 77
     0
 78
     0
281
     0
 65
     1
110
0.0
120
0.0
130
0.0
111
1.0
121
0.0
131
0.0
112
0.0
122
1.0
132
0.0
 79
     0
146
0.0
  0
ENDTAB
  0
TABLE
  2
LTYPE
  5
5
330
0
100
AcDbSymbolTable
 70
    14
  0
LTYPE
  5
14
330
5
100
AcDbSymbolTableRecord
100
AcDbLinetypeTableRecord
  2
ByBlock
 70
     0
  3

 72
    65
 73
     0
 40
0.0
  0
LTYPE
  5
15
330
5
100
AcDbSymbolTableRecord
100
AcDbLinetypeTableRecord
  2
ByLayer
 70
     0
  3

 72
    65
 73
     0
 40
0.0
  0
LTYPE
  5
16
330
5
100
AcDbSymbolTableRecord
100
AcDbLinetypeTableRecord
  2
Continuous
 70
     0
  3
Solid line
 72
    65
 73
     0
 40
0.0
  0
LTYPE
  5
43
330
5
100
AcDbSymbolTableRecord
100
AcDbLinetypeTableRecord
  2
AM_ISO02W050
 70
     0
  3
__ __ __ __ __ __ __ __ __ __ __ __ __ __ __
 72
    65
 73
     2
 40
7.5
 49
6.0
 74
     0
 49
-1.5
 74
     0
  0
LTYPE
  5
44
330
5
100
AcDbSymbolTableRecord
100
AcDbLinetypeTableRecord
  2
AM_ISO08W050
 70
     0
  3
____ . ____ . ____ . ____ . ____ . ____ . ____
 72
    65
 73
     4
 40
18.0
 49
12.0
 74
     0
 49
-1.5
 74
     0
 49
3.0
 74
     0
 49
-1.5
 74
     0
  0
LTYPE
  5
45
330
5
100
AcDbSymbolTableRecord
100
AcDbLinetypeTableRecord
  2
AM_ISO09W050
 70
     0
  3
_____ . . _____ . . _____ . . ____ .. ____
 72
    65
 73
     6
 40
22.5
 49
12.0
 74
     0
 49
-1.5
 74
     0
 49
3.0
 74
     0
 49
-1.5
 74
     0
 49
3.0
 74
     0
 49
-1.5
 74
     0
  0
LTYPE
  5
46
330
5
100
AcDbSymbolTableRecord
100
AcDbLinetypeTableRecord
  2
amconstr
 70
     0
  3
_______________________
 72
    65
 73
     2
 40
9999.0
 49
9999.0
 74
     0
 49
0.0
 74
     0
  0
LTYPE
  5
47
330
5
100
AcDbSymbolTableRecord
100
AcDbLinetypeTableRecord
  2
AM_ISO02W050x2
 70
     0
  3
 _ _ _ _ _ _ _ _ _ _ _ _
 72
    65
 73
     2
 40
3.75
 49
3.0
 74
     0
 49
-0.75
 74
     0
  0
LTYPE
  5
48
330
5
100
AcDbSymbolTableRecord
100
AcDbLinetypeTableRecord
  2
AM_ISO08W050x2
 70
     0
  3
__ . __ . __ . __ . __ . __
 72
    65
 73
     4
 40
9.0
 49
6.0
 74
     0
 49
-0.75
 74
     0
 49
1.5
 74
     0
 49
-0.75
 74
     0
  0
LTYPE
  5
4B
330
5
100
AcDbSymbolTableRecord
100
AcDbLinetypeTableRecord
  2
amzigzag
 70
     0
  3
/\/-/\/-/\/-/\/-/\/-/\/
 72
    65
 73
     2
 40
11.0001
 49
0.0001
 74
     4
 75
   135
340
4A
 46
0.04
 50
0.0
 44
0.0
 45
0.0
 49
-11.0
 74
     0
  0
LTYPE
  5
78
330
5
100
AcDbSymbolTableRecord
100
AcDbLinetypeTableRecord
  2
ACISOWELD
 70
     0
  3
_ _ _ _ _
 72
    65
 73
     2
 40
2.0
 49
2.0
 74
     0
 49
-1.0
 74
     0
  0
LTYPE
  5
79
330
5
100
AcDbSymbolTableRecord
100
AcDbLinetypeTableRecord
  2
ACISOTGB
 70
     0
  3
__ . . __ . .
 72
    65
 73
     6
 40
9.0
 49
4.0
 74
     0
 49
-1.0
 74
     0
 49
1.0
 74
     0
 49
-1.0
 74
     0
 49
1.0
 74
     0
 49
-1.0
 74
     0
  0
LTYPE
  5
7A
330
5
100
AcDbSymbolTableRecord
100
AcDbLinetypeTableRecord
  2
ACISOTGL
 70
     0
  3
_ _ _ _ _
 72
    65
 73
     2
 40
3.0
 49
2.0
 74
     0
 49
-1.0
 74
     0
  0
LTYPE
  5
431
330
5
100
AcDbSymbolTableRecord
100
AcDbLinetypeTableRecord
  2
HIDDEN
 70
     0
  3
Verdeckt
 72
    65
 73
     2
 40
9.525
 49
6.349999999999999
 74
     0
 49
-3.174999999999999
 74
     0
  0
LTYPE
  5
432
330
5
100
AcDbSymbolTableRecord
100
AcDbLinetypeTableRecord
  2
PHANTOM2
 70
     0
  3
Phantom (.5x) ___ _ _ ___ _ _ ___ _ _ ___ _ _
 72
    65
 73
     6
 40
31.75
 49
15.875
 74
     0
 49
-3.174999999999999
 74
     0
 49
3.174999999999999
 74
     0
 49
-3.174999999999999
 74
     0
 49
3.174999999999999
 74
     0
 49
-3.174999999999999
 74
     0
  0
LTYPE
  5
433
330
5
100
AcDbSymbolTableRecord
100
AcDbLinetypeTableRecord
  2
CENTER
 70
     0
  3
Mitte ____ _ ____ _ ____ _ ____ _ ____ _ ____
 72
    65
 73
     4
 40
50.8
 49
31.75
 74
     0
 49
-6.349999999999999
 74
     0
 49
6.349999999999999
 74
     0
 49
-6.349999999999999
 74
     0
  0
ENDTAB
  0
TABLE
  2
LAYER
  5
2
330
0
100
AcDbSymbolTable
 70
     5
  0
LAYER
  5
10
102
{ACAD_XDICTIONARY
360
9C8
102
}
330
2
100
AcDbSymbolTableRecord
100
AcDbLayerTableRecord
  2
0
 70
     0
 62
     7
  6
Continuous
370
    -3
390
F
  0
LAYER
  5
55
102
{ACAD_XDICTIONARY
360
9CA
102
}
330
2
100
AcDbSymbolTableRecord
100
AcDbLayerTableRecord
  2
AM_0
 70
     0
 62
     7
  6
Continuous
370
    -3
390
F
  0
LAYER
  5
538
102
{ACAD_XDICTIONARY
360
9CC
102
}
330
2
100
AcDbSymbolTableRecord
100
AcDbLayerTableRecord
  2
ASHADE
 70
     4
 62
     7
  6
Continuous
370
    -3
390
F
  0
LAYER
  5
550
102
{ACAD_XDICTIONARY
360
9CE
102
}
330
2
100
AcDbSymbolTableRecord
100
AcDbLayerTableRecord
  2
5LA86-GEH1
 70
     0
 62
   251
420
  6314833
  6
Continuous
370
    -3
390
F
  0
LAYER
  5
837
102
{ACAD_XDICTIONARY
360
9D0
102
}
330
2
100
AcDbSymbolTableRecord
100
AcDbLayerTableRecord
  2
5LA86-GLAS
 70
     0
 62
   254
420
 14277081
  6
Continuous
370
    -3
390
F
  0
ENDTAB
  0
TABLE
  2
STYLE
  5
3
330
0
100
AcDbSymbolTable
 70
     4
  0
STYLE
  5
11
330
3
100
AcDbSymbolTableRecord
100
AcDbTextStyleTableRecord
  2
STANDARD
 70
     0
 40
0.0
 41
1.0
 50
0.0
 71
     0
 42
2.5
  3
ISOCP.SHX
  4

  0
STYLE
  5
4A
330
3
100
AcDbSymbolTableRecord
100
AcDbTextStyleTableRecord
  2

 70
     1
 40
0.0
 41
1.0
 50
0.0
 71
     0
 42
2.5
  3
ltypeshp.shx
  4

  0
STYLE
  5
6F
330
3
100
AcDbSymbolTableRecord
100
AcDbTextStyleTableRecord
  2
ACISOTS
 70
     0
 40
1.0
 41
1.0
 50
0.0
 71
     0
 42
2.5
  3
isocp.shx
  4

  0
STYLE
  5
77
330
3
100
AcDbSymbolTableRecord
100
AcDbTextStyleTableRecord
  2
ACISOGDT
 70
     0
 40
0.0
 41
1.0
 50
0.0
 71
     0
 42
2.5
  3
amgdt.shx
  4

  0
ENDTAB
  0
TABLE
  2
VIEW
  5
6
330
0
100
AcDbSymbolTable
 70
     6
  0
VIEW
  5
2A0
330
6
100
AcDbSymbolTableRecord
100
AcDbViewTableRecord
  2
AM_VIEW1
 70
     0
 40
420.5
 10
361.1391955835963
 20
630.75
 41
722.2783911671925
 11
0.0
 21
0.0
 31
1.0
 12
0.0
 22
0.0
 32
0.0
 42
50.0
 43
0.0
 44
0.0
 50
0.0
 71
     0
281
     0
 72
     0
  0
VIEW
  5
2A1
330
6
100
AcDbSymbolTableRecord
100
AcDbViewTableRecord
  2
AM_VIEW2
 70
     0
 40
420.5
 10
827.8608044164037
 20
630.75
 41
722.2783911671925
 11
0.0
 21
0.0
 31
1.0
 12
0.0
 22
0.0
 32
0.0
 42
50.0
 43
0.0
 44
0.0
 50
0.0
 71
     0
281
     0
 72
     0
  0
VIEW
  5
2A2
330
6
100
AcDbSymbolTableRecord
100
AcDbViewTableRecord
  2
AM_VIEW3
 70
     0
 40
420.5
 10
361.1391955835963
 20
210.25
 41
722.2783911671925
 11
0.0
 21
0.0
 31
1.0
 12
0.0
 22
0.0
 32
0.0
 42
50.0
 43
0.0
 44
0.0
 50
0.0
 71
     0
281
     0
 72
     0
  0
VIEW
  5
2A3
330
6
100
AcDbSymbolTableRecord
100
AcDbViewTableRecord
  2
AM_VIEW4
 70
     0
 40
420.5
 10
827.8608044164037
 20
210.25
 41
722.2783911671925
 11
0.0
 21
0.0
 31
1.0
 12
0.0
 22
0.0
 32
0.0
 42
50.0
 43
0.0
 44
0.0
 50
0.0
 71
     0
281
     0
 72
     0
  0
VIEW
  5
2A4
330
6
100
AcDbSymbolTableRecord
100
AcDbViewTableRecord
  2
AM_VIEW5
 70
     0
 40
420.5
 10
594.5
 20
420.5
 41
722.2783911671925
 11
0.0
 21
0.0
 31
1.0
 12
0.0
 22
0.0
 32
0.0
 42
50.0
 43
0.0
 44
0.0
 50
0.0
 71
     0
281
     0
 72
     0
  0
VIEW
  5
2A5
330
6
100
AcDbSymbolTableRecord
100
AcDbViewTableRecord
  2
AM_VIEW6
 70
     0
 40
840.9915900000001
 10
594.5
 20
420.5
 41
1444.542336766561
 11
0.0
 21
0.0
 31
1.0
 12
0.0
 22
0.0
 32
0.0
 42
50.0
 43
0.0
 44
0.0
 50
0.0
 71
     0
281
     0
 72
     0
  0
ENDTAB
  0
TABLE
  2
UCS
  5
7
330
0
100
AcDbSymbolTable
 70
     0
  0
ENDTAB
  0
TABLE
  2
APPID
  5
9
330
0
100
AcDbSymbolTable
 70
    30
  0
APPID
  5
12
330
9
100
AcDbSymbolTableRecord
100
AcDbRegAppTableRecord
  2
ACAD
 70
     0
  0
APPID
  5
2E
330
9
100
AcDbSymbolTableRecord
100
AcDbRegAppTableRecord
  2
MCAD_NO_VIS
 70
     0
  0
APPID
  5
2F
330
9
100
AcDbSymbolTableRecord
100
AcDbRegAppTableRecord
  2
ACAD_TEMP_GRAPHIC
 70
     0
  0
APPID
  5
103
330
9
100
AcDbSymbolTableRecord
100
AcDbRegAppTableRecord
  2
GENIUS_GENDTOL_13
 70
     0
  0
APPID
  5
104
330
9
100
AcDbSymbolTableRecord
100
AcDbRegAppTableRecord
  2
GENIUS_GENDIMSH_14
 70
     0
  0
APPID
  5
191
330
9
100
AcDbSymbolTableRecord
100
AcDbRegAppTableRecord
  2
DCO15
 70
     0
  0
APPID
  5
2B9
330
9
100
AcDbSymbolTableRecord
100
AcDbRegAppTableRecord
  2
GENIUS_GENTRA_14
 70
     0
  0
APPID
  5
2BA
330
9
100
AcDbSymbolTableRecord
100
AcDbRegAppTableRecord
  2
GENIUS_GENCFG_13
 70
     0
  0
APPID
  5
2BB
330
9
100
AcDbSymbolTableRecord
100
AcDbRegAppTableRecord
  2
GENIUS_GENCFG4_13
 70
     0
  0
APPID
  5
2BC
330
9
100
AcDbSymbolTableRecord
100
AcDbRegAppTableRecord
  2
GENIUS_GENSCREG_13
 70
     0
  0
APPID
  5
2BD
330
9
100
AcDbSymbolTableRecord
100
AcDbRegAppTableRecord
  2
GENIUS_GENOREF_13
 70
     0
  0
APPID
  5
2BE
330
9
100
AcDbSymbolTableRecord
100
AcDbRegAppTableRecord
  2
GENIUS_GENODEF_13
 70
     0
  0
APPID
  5
2BF
330
9
100
AcDbSymbolTableRecord
100
AcDbRegAppTableRecord
  2
GENIUS_GENOBJ-N-SDF_13
 70
     0
  0
APPID
  5
2C0
330
9
100
AcDbSymbolTableRecord
100
AcDbRegAppTableRecord
  2
GENIUS_GENOBJ-N-TIT_13
 70
     0
  0
APPID
  5
2C1
330
9
100
AcDbSymbolTableRecord
100
AcDbRegAppTableRecord
  2
GENIUS_GENOENT_13
 70
     0
  0
APPID
  5
2C2
330
9
100
AcDbSymbolTableRecord
100
AcDbRegAppTableRecord
  2
GENIUS_GENOLIS_13
 70
     0
  0
APPID
  5
2C3
330
9
100
AcDbSymbolTableRecord
100
AcDbRegAppTableRecord
  2
GENIUS_GENTITLE_13
 70
     0
  0
APPID
  5
370
330
9
100
AcDbSymbolTableRecord
100
AcDbRegAppTableRecord
  2
GENIUS_GENZVEED_13
 70
     0
  0
APPID
  5
371
330
9
100
AcDbSymbolTableRecord
100
AcDbRegAppTableRecord
  2
GENIUS_GENSCREG_15
 70
     0
  0
APPID
  5
448
330
9
100
AcDbSymbolTableRecord
100
AcDbRegAppTableRecord
  2
AD_DRAW
 70
     0
  0
APPID
  5
44B
330
9
100
AcDbSymbolTableRecord
100
AcDbRegAppTableRecord
  2
ACATTRIBSERVICES
 70
     0
  0
APPID
  5
469
330
9
100
AcDbSymbolTableRecord
100
AcDbRegAppTableRecord
  2
DESIGNERASSEMBLIES
 70
     0
  0
APPID
  5
47A
330
9
100
AcDbSymbolTableRecord
100
AcDbRegAppTableRecord
  2
ACADM_DIM_EDIT
 70
     0
  0
APPID
  5
47B
330
9
100
AcDbSymbolTableRecord
100
AcDbRegAppTableRecord
  2
AMDT_DM_ADJ
 70
     0
  0
APPID
  5
511
330
9
100
AcDbSymbolTableRecord
100
AcDbRegAppTableRecord
  2
ACAD_MLEADERVER
 70
     0
  0
APPID
  5
536
330
9
100
AcDbSymbolTableRecord
100
AcDbRegAppTableRecord
  2
AVE_RENDER
 70
     0
  0
APPID
  5
537
330
9
100
AcDbSymbolTableRecord
100
AcDbRegAppTableRecord
  2
AVE_ENTITY_MATERIAL
 70
     0
  0
APPID
  5
544
330
9
100
AcDbSymbolTableRecord
100
AcDbRegAppTableRecord
  2
AVE_FINISH
 70
     0
  0
APPID
  5
545
330
9
100
AcDbSymbolTableRecord
100
AcDbRegAppTableRecord
  2
AVE_MATERIAL
 70
     0
  0
APPID
  5
546
330
9
100
AcDbSymbolTableRecord
100
AcDbRegAppTableRecord
  2
AVE_GLOBAL
 70
     0
  0
ENDTAB
  0
TABLE
  2
DIMSTYLE
  5
A
330
0
100
AcDbSymbolTable
 70
     7
100
AcDbDimStyleTable
 71
     1
340
58
  0
DIMSTYLE
105
58
330
A
100
AcDbSymbolTableRecord
100
AcDbDimStyleTableRecord
  2
AM_ISO
 70
     0
  4
""
 41
2.5
 42
1.0
 43
10.0
 44
1.0
 47
0.1
 48
0.1
 73
     0
 74
     0
 77
     1
 78
     8
 79
     2
140
3.5
141
0.0
143
0.0393701
146
0.71
147
1.5
172
     1
176
   256
177
   256
178
     2
271
     2
272
     3
274
     4
283
     0
340
11
371
    -1
372
    -1
  0
DIMSTYLE
105
59
330
A
100
AcDbSymbolTableRecord
100
AcDbDimStyleTableRecord
  2
AM_ISO$3
 70
     0
  4
""
 41
2.5
 42
1.0
 43
10.0
 44
1.0
 47
0.1
 48
0.1
 73
     0
 77
     1
 78
     8
 79
     2
140
3.5
141
0.0
143
0.0393701
146
0.71
147
1.5
176
   256
177
   256
178
     2
271
     2
272
     3
274
     4
283
     0
288
     1
289
     0
340
11
371
    -1
372
    -1
  0
DIMSTYLE
105
5A
330
A
100
AcDbSymbolTableRecord
100
AcDbDimStyleTableRecord
  2
AM_ISO$4
 70
     0
  4
""
 41
2.5
 42
1.0
 43
10.0
 44
1.0
 47
0.1
 48
0.1
 73
     0
 77
     1
 78
     8
 79
     2
140
3.5
141
0.0
143
0.0393701
146
0.71
147
1.5
176
   256
177
   256
178
     2
271
     2
272
     3
274
     4
283
     0
288
     1
289
     0
340
11
371
    -1
372
    -1
  0
DIMSTYLE
105
5B
330
A
100
AcDbSymbolTableRecord
100
AcDbDimStyleTableRecord
  2
AM_ISO$6
 70
     0
  4
""
 41
2.5
 42
1.0
 43
10.0
 44
1.0
 47
0.1
 48
0.1
 73
     0
 74
     0
 78
     8
 79
     2
140
3.5
141
0.0
143
0.0393701
146
0.71
147
1.5
172
     1
176
   256
177
   256
178
     2
271
     2
272
     3
274
     4
283
     0
340
11
371
    -1
372
    -1
  0
DIMSTYLE
105
5C
330
A
100
AcDbSymbolTableRecord
100
AcDbDimStyleTableRecord
  2
AM_ISO$7
 70
     0
  4
""
 41
2.5
 42
1.0
 43
10.0
 44
1.0
 47
0.1
 48
0.1
 73
     0
 74
     0
 77
     1
 78
     8
 79
     2
140
5.0
141
0.0
143
0.0393701
146
0.71
147
1.5
172
     1
176
   256
177
   256
178
     2
271
     2
272
     3
274
     4
283
     0
340
11
371
    -1
372
    -1
  0
DIMSTYLE
105
5D
330
A
100
AcDbSymbolTableRecord
100
AcDbDimStyleTableRecord
  2
AM_ISO$SF
 70
     0
  4
""
 41
2.5
 42
1.0
 43
10.0
 44
1.0
 47
0.1
 48
0.1
 73
     0
 74
     0
 75
     1
 76
     1
 77
     1
 78
     8
 79
     2
140
3.5
141
0.0
143
0.0393701
146
0.71
147
1.5
172
     1
176
   256
177
   256
178
     2
271
     2
272
     3
274
     4
283
     0
340
11
371
    -1
372
    -1
  0
DIMSTYLE
105
62
330
A
100
AcDbSymbolTableRecord
100
AcDbDimStyleTableRecord
  2
AM_ISO$SH
 70
     0
  4
""
 41
2.5
 42
1.0
 43
10.0
 44
1.0
 47
0.1
 48
0.1
 73
     0
 74
     0
 75
     1
 76
     1
 77
     1
 78
     8
 79
     2
140
3.5
141
0.0
143
0.0393701
144
2.0
146
0.71
147
1.5
172
     1
173
     1
176
   256
177
   256
178
     2
271
     2
272
     3
274
     4
283
     0
340
11
343
5E
371
    -1
372
    -1
  0
ENDTAB
  0
TABLE
  2
BLOCK_RECORD
  5
1
330
0
100
AcDbSymbolTable
 70
     6
  0
BLOCK_RECORD
  5
1F
102
{ACAD_XDICTIONARY
360
7C
102
}
330
1
100
AcDbSymbolTableRecord
100
AcDbBlockTableRecord
  2
*Model_Space
340
22
  0
BLOCK_RECORD
  5
23
330
1
100
AcDbSymbolTableRecord
100
AcDbBlockTableRecord
  2
*Paper_Space
340
26
  0
BLOCK_RECORD
  5
1B
330
1
100
AcDbSymbolTableRecord
100
AcDbBlockTableRecord
  2
*Paper_Space0
340
1E
  0
BLOCK_RECORD
  5
5E
330
1
100
AcDbSymbolTableRecord
100
AcDbBlockTableRecord
  2
GENAXEH
340
0
  0
BLOCK_RECORD
  5
539
330
1
100
AcDbSymbolTableRecord
100
AcDbBlockTableRecord
  2
AVE_RENDER
340
0
102
{BLKREFS
331
53C
331
53D
331
53E
331
53F
331
540
331
541
331
542
331
543
102
}
  0
BLOCK_RECORD
  5
547
330
1
100
AcDbSymbolTableRecord
100
AcDbBlockTableRecord
  2
AVE_GLOBAL
340
0
102
{BLKREFS
331
54A
102
}
  0
BLOCK_RECORD
  5
804
330
1
100
AcDbSymbolTableRecord
100
AcDbBlockTableRecord
  2
RM_SDB
340
0
102
{BLKREFS
331
81E
331
99D
102
}
  0
ENDTAB
  0
ENDSEC
  0
SECTION
  2
BLOCKS
  0
BLOCK
  5
20
330
1F
100
AcDbEntity
  8
0
100
AcDbBlockBegin
  2
*Model_Space
 70
     0
 10
0.0
 20
0.0
 30
0.0
  3
*Model_Space
  1

  0
ENDBLK
  5
21
330
1F
100
AcDbEntity
  8
0
100
AcDbBlockEnd
  0
BLOCK
  5
24
330
23
100
AcDbEntity
 67
     1
  8
0
100
AcDbBlockBegin
  2
*Paper_Space
 70
     0
 10
0.0
 20
0.0
 30
0.0
  3
*Paper_Space
  1

  0
ENDBLK
  5
25
330
23
100
AcDbEntity
 67
     1
  8
0
100
AcDbBlockEnd
  0
BLOCK
  5
1C
330
1B
100
AcDbEntity
 67
     1
  8
0
100
AcDbBlockBegin
  2
*Paper_Space0
 70
     0
 10
0.0
 20
0.0
 30
0.0
  3
*Paper_Space0
  1

  0
VIEWPORT
  5
12B
330
1B
100
AcDbEntity
 67
     1
  8
0
100
AcDbViewport
 10
588.6812744140625
 20
414.7062501907348
 30
0.0
 40
1639.514165067178
 41
889.778
 68
     0
 69
     0
 12
588.6812744140625
 22
414.7062501907348
 13
0.0
 23
0.0
 14
10.0
 24
10.0
 15
10.0
 25
10.0
 16
0.0
 26
0.0
 36
1.0
 17
0.0
 27
0.0
 37
0.0
 42
50.0
 43
0.0
 44
0.0
 45
889.778
 50
0.0
 51
0.0
 72
   100
 90
    32800
  1

281
     0
 71
     1
 74
     0
110
0.0
120
0.0
130
0.0
111
1.0
121
0.0
131
0.0
112
0.0
122
1.0
132
0.0
 79
     0
146
0.0
170
     0
  0
ENDBLK
  5
1D
330
1B
100
AcDbEntity
 67
     1
  8
0
100
AcDbBlockEnd
  0
BLOCK
  5
60
330
5E
100
AcDbEntity
  8
0
100
AcDbBlockBegin
  2
GENAXEH
 70
     0
 10
0.0
 20
0.0
 30
0.0
  3
GENAXEH
  1

  0
LINE
  5
5F
330
5E
100
AcDbEntity
  8
AM_0
100
AcDbLine
 10
-1.0
 20
0.0
 30
0.0
 11
1.0
 21
0.0
 31
0.0
  0
ENDBLK
  5
61
330
5E
100
AcDbEntity
  8
0
100
AcDbBlockEnd
  0
BLOCK
  5
53A
330
539
100
AcDbEntity
  8
ASHADE
100
AcDbBlockBegin
  2
AVE_RENDER
 70
     0
 10
0.0
 20
0.0
 30
0.0
  3
AVE_RENDER
  1
AVE_RENDER
  0
ENDBLK
  5
53B
330
539
100
AcDbEntity
  8
0
100
AcDbBlockEnd
  0
BLOCK
  5
548
330
547
100
AcDbEntity
  8
ASHADE
100
AcDbBlockBegin
  2
AVE_GLOBAL
 70
     0
 10
0.0
 20
0.0
 30
0.0
  3
AVE_GLOBAL
  1
AVE_GLOBAL
  0
ENDBLK
  5
549
330
547
100
AcDbEntity
  8
0
100
AcDbBlockEnd
  0
BLOCK
  5
805
330
804
100
AcDbEntity
  8
ASHADE
100
AcDbBlockBegin
  2
RM_SDB
 70
     2
 10
0.0
 20
0.0
 30
0.0
  3
RM_SDB
  1
RM_SDB
  0
ATTDEF
  5
806
330
804
100
AcDbEntity
  8
AM_0
100
AcDbText
 10
0.0
 20
0.0
 30
0.0
 40
0.2
  1

100
AcDbAttributeDefinition
  3

  2
NAME
 70
     1
  0
ATTDEF
  5
807
330
804
100
AcDbEntity
  8
AM_0
100
AcDbText
 10
0.0
 20
0.0
 30
0.0
 40
0.2
  1

100
AcDbAttributeDefinition
  3

  2
ACADCOLOR
 70
     1
  0
ATTDEF
  5
808
330
804
100
AcDbEntity
  8
AM_0
100
AcDbText
 10
0.0
 20
0.0
 30
0.0
 40
0.2
  1

100
AcDbAttributeDefinition
  3

  2
COLOR
 70
     1
  0
ATTDEF
  5
809
330
804
100
AcDbEntity
  8
AM_0
100
AcDbText
 10
0.0
 20
0.0
 30
0.0
 40
0.2
  1

100
AcDbAttributeDefinition
  3

  2
OPACITY
 70
     1
  0
ATTDEF
  5
80A
330
804
100
AcDbEntity
  8
AM_0
100
AcDbText
 10
0.0
 20
0.0
 30
0.0
 40
0.2
  1

100
AcDbAttributeDefinition
  3

  2
SURFACE
 70
     1
  0
ATTDEF
  5
80B
330
804
100
AcDbEntity
  8
AM_0
100
AcDbText
 10
0.0
 20
0.0
 30
0.0
 40
0.2
  1

100
AcDbAttributeDefinition
  3

  2
SURF1
 70
     1
  0
ATTDEF
  5
80C
330
804
100
AcDbEntity
  8
AM_0
100
AcDbText
 10
0.0
 20
0.0
 30
0.0
 40
0.2
  1

100
AcDbAttributeDefinition
  3

  2
SURF2
 70
     1
  0
ATTDEF
  5
80D
330
804
100
AcDbEntity
  8
AM_0
100
AcDbText
 10
0.0
 20
0.0
 30
0.0
 40
0.2
  1

100
AcDbAttributeDefinition
  3

  2
SURF3
 70
     1
  0
ATTDEF
  5
80E
330
804
100
AcDbEntity
  8
AM_0
100
AcDbText
 10
0.0
 20
0.0
 30
0.0
 40
0.2
  1

100
AcDbAttributeDefinition
  3

  2
SURF4
 70
     1
  0
ATTDEF
  5
80F
330
804
100
AcDbEntity
  8
AM_0
100
AcDbText
 10
0.0
 20
0.0
 30
0.0
 40
0.2
  1

100
AcDbAttributeDefinition
  3

  2
SHADINGRATE
 70
     1
  0
ATTDEF
  5
810
330
804
100
AcDbEntity
  8
AM_0
100
AcDbText
 10
0.0
 20
0.0
 30
0.0
 40
0.2
  1

100
AcDbAttributeDefinition
  3

  2
DISPLACEMENT
 70
     1
  0
ATTDEF
  5
811
330
804
100
AcDbEntity
  8
AM_0
100
AcDbText
 10
0.0
 20
0.0
 30
0.0
 40
0.2
  1

100
AcDbAttributeDefinition
  3

  2
DISP1
 70
     1
  0
ATTDEF
  5
812
330
804
100
AcDbEntity
  8
AM_0
100
AcDbText
 10
0.0
 20
0.0
 30
0.0
 40
0.2
  1

100
AcDbAttributeDefinition
  3

  2
DISP2
 70
     1
  0
ATTDEF
  5
813
330
804
100
AcDbEntity
  8
AM_0
100
AcDbText
 10
0.0
 20
0.0
 30
0.0
 40
0.2
  1

100
AcDbAttributeDefinition
  3

  2
DISP3
 70
     1
  0
ATTDEF
  5
814
330
804
100
AcDbEntity
  8
AM_0
100
AcDbText
 10
0.0
 20
0.0
 30
0.0
 40
0.2
  1

100
AcDbAttributeDefinition
  3

  2
DISP4
 70
     1
  0
ATTDEF
  5
815
330
804
100
AcDbEntity
  8
AM_0
100
AcDbText
 10
0.0
 20
0.0
 30
0.0
 40
0.2
  1

100
AcDbAttributeDefinition
  3

  2
DBOUND
 70
     1
  0
ATTDEF
  5
816
330
804
100
AcDbEntity
  8
AM_0
100
AcDbText
 10
0.0
 20
0.0
 30
0.0
 40
0.2
  1

100
AcDbAttributeDefinition
  3

  2
SMOOTH
 70
     1
  0
ATTDEF
  5
817
330
804
100
AcDbEntity
  8
AM_0
100
AcDbText
 10
0.0
 20
0.0
 30
0.0
 40
0.2
  1

100
AcDbAttributeDefinition
  3

  2
ATMOSHPERE
 70
     1
  0
ATTDEF
  5
818
330
804
100
AcDbEntity
  8
AM_0
100
AcDbText
 10
0.0
 20
0.0
 30
0.0
 40
0.2
  1

100
AcDbAttributeDefinition
  3

  2
ATMO1
 70
     1
  0
ATTDEF
  5
819
330
804
100
AcDbEntity
  8
AM_0
100
AcDbText
 10
0.0
 20
0.0
 30
0.0
 40
0.2
  1

100
AcDbAttributeDefinition
  3

  2
ATMO2
 70
     1
  0
ATTDEF
  5
81A
330
804
100
AcDbEntity
  8
AM_0
100
AcDbText
 10
0.0
 20
0.0
 30
0.0
 40
0.2
  1

100
AcDbAttributeDefinition
  3

  2
ATMO3
 70
     1
  0
ATTDEF
  5
81B
330
804
100
AcDbEntity
  8
AM_0
100
AcDbText
 10
0.0
 20
0.0
 30
0.0
 40
0.2
  1

100
AcDbAttributeDefinition
  3

  2
ATMO4
 70
     1
  0
ATTDEF
  5
81C
330
804
100
AcDbEntity
  8
AM_0
100
AcDbText
 10
0.0
 20
0.0
 30
0.0
 40
0.2
  1

100
AcDbAttributeDefinition
  3

  2
TCCORD
 70
     1
  0
ENDBLK
  5
81D
330
804
100
AcDbEntity
  8
0
100
AcDbBlockEnd
  0
ENDSEC
  0
SECTION
  2
ENTITIES
  0
INSERT
  5
53C
330
1F
100
AcDbEntity
  8
ASHADE
 62
     1
100
AcDbBlockReference
  2
AVE_RENDER
 10
0.0
 20
0.0
 30
0.0
1001
AVE_RENDER
1002
{
1070
     7
1000
Pref
1070
    50
1070
    20
1070
     1
1070
     0
1000

1070
    10
1070
     1
1070
    10
1040
1.0
1070
     1
1040
0.6999999880790711
1040
1.0
1040
0.2000000029802322
1040
2.0
1010
-1.0
1020
-1.0
1030
-1.0
1040
0.3000000119209289
1070
    49
1070
     0
1070
     0
1010
1.0
1020
1.0
1030
1.0
1040
45.0
1070
     1
1070
     0
1000
WCS
1040
0.0
1070
     0
1040
10.0
1002
}
  0
INSERT
  5
53D
330
1F
100
AcDbEntity
  8
ASHADE
 62
     3
100
AcDbBlockReference
  2
AVE_RENDER
 10
0.0
 20
0.0
 30
0.0
1001
AVE_RENDER
1002
{
1070
     0
1000
Full Opt
1070
     0
1070
     1
1070
     1
1070
     1
1070
     0
1070
     0
1070
     0
1070
     1
1070
     1
1040
0.0001
1040
0.0001
1002
}
  0
INSERT
  5
53E
330
1F
100
AcDbEntity
  8
ASHADE
 62
     4
100
AcDbBlockReference
  2
AVE_RENDER
 10
0.0
 20
0.0
 30
0.0
1001
AVE_RENDER
1002
{
1070
     0
1000
Quick Opt
1070
     0
1070
     1
1070
     1
1070
     1
1070
     0
1070
     0
1070
     1
1002
}
  0
INSERT
  5
53F
330
1F
100
AcDbEntity
  8
ASHADE
 62
     5
100
AcDbBlockReference
  2
AVE_RENDER
 10
0.0
 20
0.0
 30
0.0
1001
AVE_RENDER
1002
{
1070
     1
1000
Scanl Opt
1070
     2
1070
     0
1070
     2
1040
2.0
1040
4.0
1070
     0
1070
     1
1070
     0
1040
0.03
1002
}
  0
INSERT
  5
540
330
1F
100
AcDbEntity
  8
ASHADE
 62
     6
100
AcDbBlockReference
  2
AVE_RENDER
 10
0.0
 20
0.0
 30
0.0
1001
AVE_RENDER
1002
{
1070
     2
1000
Raytr Opt
1070
     2
1070
     0
1070
     2
1040
2.0
1040
4.0
1070
     0
1070
     1
1070
     1
1040
0.03
1070
     3
1040
0.03
1002
}
  0
INSERT
  5
541
330
1F
100
AcDbEntity
  8
ASHADE
 62
     7
100
AcDbBlockReference
  2
AVE_RENDER
 10
0.0
 20
0.0
 30
0.0
1001
AVE_RENDER
1002
{
1070
     0
1000
RFile Opt
1070
     1
1070
   640
1070
   480
1070
 10000
1070
     1
1070
     8
1070
     8
1070
     0
1070
     0
1070
     0
1070
     0
1070
     0
1070
     0
1070
     0
1002
}
  0
INSERT
  5
542
330
1F
100
AcDbEntity
  8
ASHADE
 62
     8
100
AcDbBlockReference
  2
AVE_RENDER
 10
0.0
 20
0.0
 30
0.0
1001
AVE_RENDER
1002
{
1070
     0
1000
Fog Opt
1070
     0
1070
     0
1040
0.0
1040
1.0
1040
0.0
1040
1.0
1010
0.5
1020
0.5
1030
0.5
1002
}
  0
INSERT
  5
543
330
1F
100
AcDbEntity
  8
ASHADE
 62
     9
100
AcDbBlockReference
  2
AVE_RENDER
 10
0.0
 20
0.0
 30
0.0
1001
AVE_RENDER
1002
{
1070
     0
1000
BG Opt
1070
     0
1070
     1
1010
0.0
1020
0.0
1030
0.0
1010
0.0
1020
0.0
1030
1.0
1010
0.0
1020
1.0
1030
0.0
1010
1.0
1020
0.0
1030
0.0
1040
0.5
1040
0.5
1040
0.0
1000

1070
     1
1000

1070
     1
1070
     1
1040
1.0
1040
1.0
1040
0.0
1040
0.0
1070
     0
1002
}
  0
INSERT
  5
54A
330
1F
100
AcDbEntity
  8
ASHADE
 62
     1
100
AcDbBlockReference
  2
AVE_GLOBAL
 10
0.0
 20
0.0
 30
0.0
1001
AVE_MATERIAL
1002
{
1000
*GLOBAL*
1000
2
1000
Globales Material.
1002
{
1002
}
1002
{
1070
    63
1002
{
1002
{
1010
-1.0
1020
-1.0
1030
-1.0
1002
}
1040
0.6999999880790711
1000

1040
0.0
1002
{
1002
}
1040
0.0
1002
{
1002
}
1040
0.0
1002
}
1002
{
1002
{
1010
-1.0
1020
-1.0
1030
-1.0
1002
}
1040
1.0
1000

1040
0.0
1002
{
1002
}
1040
0.0
1002
{
1002
}
1040
0.0
1002
}
1002
{
1002
{
1010
-1.0
1020
-1.0
1030
-1.0
1002
}
1040
0.2000000029802322
1000

1040
0.0
1002
{
1002
}
1040
0.0
1002
{
1002
}
1040
0.0
1002
}
1002
{
1070
     0
1002
{
1070
     1
1002
{
1040
1.0
1040
1.0
1000

1040
0.0
1002
{
1002
}
1040
0.0
1002
{
1002
}
1040
0.0
1002
}
1002
}
1040
1.0
1040
0.0
1040
0.0
1002
}
1002
{
1040
1.0
1040
1.0
1000

1040
0.0
1002
{
1002
}
1040
0.0
1002
{
1002
}
1040
0.0
1002
}
1002
{
1040
0.5
1040
1.0
1000

1040
0.0
1002
{
1002
}
1040
0.0
1002
{
1002
}
1040
0.0
1002
}
1002
{
1070
     0
1040
0.0
1002
{
1002
}
1040
1.0
1002
{
1002
}
1040
0.0
1002
}
1002
{
1040
0.0
1002
{
1002
{
1010
0.0
1020
0.0
1030
0.0
1002
}
1040
1.0
1000

1040
0.0
1002
{
1002
}
1040
0.0
1002
{
1002
}
1040
0.0
1002
}
1002
}
1002
{
1002
{
1070
     1
1002
{
1040
0.0
1040
1.0
1000

1040
0.0
1002
{
1002
}
1040
0.0
1002
{
1002
}
1040
0.0
1002
}
1002
}
1040
0.0
1002
{
1002
}
1010
1.0
1020
0.0
1030
0.0
1010
0.0
1020
1.0
1030
0.0
1010
0.0
1020
0.0
1030
1.0
1070
     0
1002
}
1002
{
1002
{
1040
1.0
1040
1.0
1002
{
1070
     1
1002
{
1040
1.0
1040
1.0
1000

1040
0.0
1002
{
1002
}
1040
0.0
1002
{
1002
}
1040
0.0
1002
}
1002
}
1002
}
1070
     0
1040
0.0
1002
{
1002
}
1002
}
1002
{
1002
}
1002
}
1002
{
1071
        3
1070
     3
1070
     0
1002
{
1070
     2
1070
     0
1070
     0
1040
0.0
1002
}
1070
     0
1070
     2
1002
{
1002
}
1002
}
1002
{
1040
8030.0
1040
190.3000030517578
1040
0.3050000071525574
1040
228.0
1040
545.0
1040
14.0
1040
17.39999961853027
1040
0.4560000002384186
1002
}
1000

1002
}
  0
POLYLINE
  5
551
330
1F
100
AcDbEntity
  8
5LA86-GEH1
100
AcDbPolyFaceMesh
 66
     1
 10
0.0
 20
0.0
 30
0.0
 70
    64
 71
   347
 72
   342
1001
AVE_ENTITY_MATERIAL
1002
{
1000

1002
{
1071
        0
1070
     0
1070
     0
1002
{
1070
     0
1070
     0
1070
     0
1040
0.0
1002
}
1070
     0
1070
     0
1002
{
1002
}
1002
}
1002
{
1002
}
1002
{
1002
}
1011
0.0
1021
0.0
1031
0.0
1011
1.0
1021
0.0
1031
0.0
1011
0.0
1021
1.0
1031
0.0
1011
0.0
1021
0.0
1031
1.0
1002
}
  0
VERTEX
  5
552
330
551
100
AcDbEntity
  8
5LA86-GEH1
100
AcDbVertex
100
AcDbPolyFaceMeshVertex
 10
126.1130905151367
 20
780.5
 30
-21.48015785217285
 70
   192
  0
VERTEX
  5
553
330
551
100
AcDbEntity
  8
5LA86-GEH1
100
AcDbVertex
100
AcDbPolyFaceMeshVertex
 10
127.9449615478515
 20
778.61962890625
 30
-22.11653327941895
 70
   192
  0
VERTEX
  5
554
330
551
100
AcDbEntity
  8
5LA86-GEH1
100
AcDbVertex
100
AcDbPolyFaceMeshVertex
 10
116.3400650024414
 20
779.4999999999999
 30
-34.17084884643555
 70
   192
  0
VERTEX
  5
555
330
551
100
AcDbEntity
  8
5LA86-GEH1
100
AcDbVertex
100
AcDbPolyFaceMeshVertex
 10
127.7844619750976
 20
778.5
 30
-22.57858467102051
 70
   192
  0
VERTEX
  5
556
330
551
100
AcDbEntity
  8
5LA86-GEH1
100
AcDbVertex
100
AcDbPolyFaceMeshVertex
 10
115.8499145507812
 20
778.5
 30
-35.93812561035156
 70
   192
  0
VERTEX
  5
557
330
551
100
AcDbEntity
  8
5LA86-GEH1
100
AcDbVertex
100
AcDbPolyFaceMeshVertex
 10
103.1095504760742
 20
779.4999999999999
 30
-44.008544921875
 70
   192
  0
VERTEX
  5
558
330
551
100
AcDbEntity
  8
5LA86-GEH1
100
AcDbVertex
100
AcDbPolyFaceMeshVertex
 10
101.405044555664
 20
778.5
 30
-46.20922470092773
 70
   192
  0
VERTEX
  5
559
330
551
100
AcDbEntity
  8
5LA86-GEH1
100
AcDbVertex
100
AcDbPolyFaceMeshVertex
 10
89.64408874511718
 20
779.4999999999999
 30
-51.24014663696289
 70
   192
  0
VERTEX
  5
55A
330
551
100
AcDbEntity
  8
5LA86-GEH1
100
AcDbVertex
100
AcDbPolyFaceMeshVertex
 10
85.63961029052734
 20
778.5
 30
-54.11336517333984
 70
   192
  0
VERTEX
  5
55B
330
551
100
AcDbEntity
  8
5LA86-GEH1
100
AcDbVertex
100
AcDbPolyFaceMeshVertex
 10
75.52632141113281
 20
779.4999999999999
 30
-56.96113586425781
 70
   192
  0
VERTEX
  5
55C
330
551
100
AcDbEntity
  8
5LA86-GEH1
100
AcDbVertex
100
AcDbPolyFaceMeshVertex
 10
69.13434600830078
 20
778.5
 30
-60.12616729736328
 70
   192
  0
VERTEX
  5
55D
330
551
100
AcDbEntity
  8
5LA86-GEH1
100
AcDbVertex
100
AcDbPolyFaceMeshVertex
 10
46.11595916748046
 20
779.4999999999999
 30
-64.7725601196289
 70
   192
  0
VERTEX
  5
55E
330
551
100
AcDbEntity
  8
5LA86-GEH1
100
AcDbVertex
100
AcDbPolyFaceMeshVertex
 10
34.90267562866211
 20
778.5
 30
-67.620849609375
 70
   192
  0
VERTEX
  5
55F
330
551
100
AcDbEntity
  8
5LA86-GEH1
100
AcDbVertex
100
AcDbPolyFaceMeshVertex
 10
26.14769744873047
 20
779.4999999999999
 30
-67.66909790039062
 70
   192
  0
VERTEX
  5
560
330
551
100
AcDbEntity
  8
5LA86-GEH1
100
AcDbVertex
100
AcDbPolyFaceMeshVertex
 10
-0.0112333297729492
 20
778.5
 30
-70.00013732910156
 70
   192
  0
VERTEX
  5
561
330
551
100
AcDbEntity
  8
5LA86-GEH1
100
AcDbVertex
100
AcDbPolyFaceMeshVertex
 10
6.014667510986328
 20
779.4999999999999
 30
-68.93096160888672
 70
   192
  0
VERTEX
  5
562
330
551
100
AcDbEntity
  8
5LA86-GEH1
100
AcDbVertex
100
AcDbPolyFaceMeshVertex
 10
-11.09738826751709
 20
779.4999999999999
 30
-68.76210784912109
 70
   192
  0
VERTEX
  5
563
330
551
100
AcDbEntity
  8
5LA86-GEH1
100
AcDbVertex
100
AcDbPolyFaceMeshVertex
 10
-2.107367515563964
 20
780.5
 30
-67.99137115478515
 70
   192
  0
VERTEX
  5
564
330
551
100
AcDbEntity
  8
5LA86-GEH1
100
AcDbVertex
100
AcDbPolyFaceMeshVertex
 10
-37.24420166015625
 20
780.5
 30
-65.26108551025391
 70
   192
  0
VERTEX
  5
565
330
551
100
AcDbEntity
  8
5LA86-GEH1
100
AcDbVertex
100
AcDbPolyFaceMeshVertex
 10
-41.44191360473633
 20
779.4999999999999
 30
-65.606201171875
 70
   192
  0
VERTEX
  5
566
330
551
100
AcDbEntity
  8
5LA86-GEH1
100
AcDbVertex
100
AcDbPolyFaceMeshVertex
 10
-71.56139373779296
 20
780.5
 30
-57.25381469726563
 70
   192
  0
VERTEX
  5
567
330
551
100
AcDbEntity
  8
5LA86-GEH1
100
AcDbVertex
100
AcDbPolyFaceMeshVertex
 10
-34.92623901367188
 20
778.5
 30
-67.61669158935546
 70
   192
  0
VERTEX
  5
568
330
551
100
AcDbEntity
  8
5LA86-GEH1
100
AcDbVertex
100
AcDbPolyFaceMeshVertex
 10
-69.1544189453125
 20
778.5
 30
-60.11914443969726
 70
   192
  0
VERTEX
  5
569
330
551
100
AcDbEntity
  8
5LA86-GEH1
100
AcDbVertex
100
AcDbPolyFaceMeshVertex
 10
-71.56139373779296
 20
780.5
 30
-57.25381469726563
 70
   192
  0
VERTEX
  5
56A
330
551
100
AcDbEntity
  8
5LA86-GEH1
100
AcDbVertex
100
AcDbPolyFaceMeshVertex
 10
-85.6658935546875
 20
778.5
 30
-54.10104370117188
 70
   192
  0
VERTEX
  5
56B
330
551
100
AcDbEntity
  8
5LA86-GEH1
100
AcDbVertex
100
AcDbPolyFaceMeshVertex
 10
-71.56139373779296
 20
780.5
 30
-57.25381469726563
 70
   192
  0
VERTEX
  5
56C
330
551
100
AcDbEntity
  8
5LA86-GEH1
100
AcDbVertex
100
AcDbPolyFaceMeshVertex
 10
-85.6658935546875
 20
778.5
 30
-54.10104370117188
 70
   192
  0
VERTEX
  5
56D
330
551
100
AcDbEntity
  8
5LA86-GEH1
100
AcDbVertex
100
AcDbPolyFaceMeshVertex
 10
-101.4171600341797
 20
778.5
 30
-46.20231628417968
 70
   192
  0
VERTEX
  5
56E
330
551
100
AcDbEntity
  8
5LA86-GEH1
100
AcDbVertex
100
AcDbPolyFaceMeshVertex
 10
-103.5350723266601
 20
780.5
 30
-42.5601692199707
 70
   192
  0
VERTEX
  5
56F
330
551
100
AcDbEntity
  8
5LA86-GEH1
100
AcDbVertex
100
AcDbPolyFaceMeshVertex
 10
-115.8795623779297
 20
778.5
 30
-35.91267395019531
 70
   192
  0
VERTEX
  5
570
330
551
100
AcDbEntity
  8
5LA86-GEH1
100
AcDbVertex
100
AcDbPolyFaceMeshVertex
 10
-118.0856781005859
 20
779.4999999999999
 30
-32.54759597778321
 70
   192
  0
VERTEX
  5
571
330
551
100
AcDbEntity
  8
5LA86-GEH1
100
AcDbVertex
100
AcDbPolyFaceMeshVertex
 10
-127.7844543457031
 20
778.5
 30
-22.57858085632324
 70
   192
  0
VERTEX
  5
572
330
551
100
AcDbEntity
  8
5LA86-GEH1
100
AcDbVertex
100
AcDbPolyFaceMeshVertex
 10
-128.4290313720703
 20
780.5
 30
-17.95615577697754
 70
   192
  0
VERTEX
  5
573
330
551
100
AcDbEntity
  8
5LA86-GEH1
100
AcDbVertex
100
AcDbPolyFaceMeshVertex
 10
-128.10546875
 20
778.7392578124999
 30
-21.65447807312012
 70
   192
  0
VERTEX
  5
574
330
551
100
AcDbEntity
  8
5LA86-GEH1
100
AcDbVertex
100
AcDbPolyFaceMeshVertex
 10
-117.463638305664
 20
780.5
 30
-31.75843811035156
 70
   192
  0
VERTEX
  5
575
330
551
100
AcDbEntity
  8
5LA86-GEH1
100
AcDbVertex
100
AcDbPolyFaceMeshVertex
 10
-103.5350723266601
 20
780.5
 30
-42.5601692199707
 70
   192
  0
VERTEX
  5
576
330
551
100
AcDbEntity
  8
5LA86-GEH1
100
AcDbVertex
100
AcDbPolyFaceMeshVertex
 10
-87.99920654296874
 20
780.5
 30
-50.89189910888672
 70
   192
  0
VERTEX
  5
577
330
551
100
AcDbEntity
  8
5LA86-GEH1
100
AcDbVertex
100
AcDbPolyFaceMeshVertex
 10
-85.6658935546875
 20
778.5
 30
-54.10104370117188
 70
   192
  0
VERTEX
  5
578
330
551
100
AcDbEntity
  8
5LA86-GEH1
100
AcDbVertex
100
AcDbPolyFaceMeshVertex
 10
-85.6658935546875
 20
778.5
 30
-54.10104370117188
 70
   192
  0
VERTEX
  5
579
330
551
100
AcDbEntity
  8
5LA86-GEH1
100
AcDbVertex
100
AcDbPolyFaceMeshVertex
 10
33.06999206542969
 20
780.5
 30
-65.8505630493164
 70
   192
  0
VERTEX
  5
57A
330
551
100
AcDbEntity
  8
5LA86-GEH1
100
AcDbVertex
100
AcDbPolyFaceMeshVertex
 10
67.54122924804687
 20
780.5
 30
-58.5221061706543
 70
   192
  0
VERTEX
  5
57B
330
551
100
AcDbEntity
  8
5LA86-GEH1
100
AcDbVertex
100
AcDbPolyFaceMeshVertex
 10
84.13272857666015
 20
780.5
 30
-52.57847213745117
 70
   192
  0
VERTEX
  5
57C
330
551
100
AcDbEntity
  8
5LA86-GEH1
100
AcDbVertex
100
AcDbPolyFaceMeshVertex
 10
99.93537902832031
 20
780.5
 30
-44.7527961730957
 70
   192
  0
VERTEX
  5
57D
330
551
100
AcDbEntity
  8
5LA86-GEH1
100
AcDbVertex
100
AcDbPolyFaceMeshVertex
 10
114.3422546386718
 20
780.5
 30
-34.59761428833008
 70
   192
  0
VERTEX
  5
57E
330
551
100
AcDbEntity
  8
5LA86-GEH1
100
AcDbVertex
100
AcDbPolyFaceMeshVertex
 10
127.9449615478515
 20
778.61962890625
 30
-22.11653327941895
 70
   192
  0
VERTEX
  5
57F
330
551
100
AcDbEntity
  8
5LA86-GEH1
100
AcDbVertex
100
AcDbPolyFaceMeshVertex
 10
126.1130905151367
 20
780.5
 30
-21.48015785217285
 70
   192
  0
VERTEX
  5
580
330
551
100
AcDbEntity
  8
5LA86-GEH1
100
AcDbVertex
100
AcDbPolyFaceMeshVertex
 10
128.10546875
 20
778.5
 30
-21.65448570251465
 70
   192
  0
VERTEX
  5
581
330
551
100
AcDbEntity
  8
5LA86-GEH1
100
AcDbVertex
100
AcDbPolyFaceMeshVertex
 10
127.9923706054687
 20
780.5
 30
0.0001068115234375
 70
   192
  0
VERTEX
  5
582
330
551
100
AcDbEntity
  8
5LA86-GEH1
100
AcDbVertex
100
AcDbPolyFaceMeshVertex
 10
130.0
 20
778.5
 30
0.0000991821289063
 70
   192
  0
VERTEX
  5
583
330
551
100
AcDbEntity
  8
5LA86-GEH1
100
AcDbVertex
100
AcDbPolyFaceMeshVertex
 10
126.1130905151367
 20
780.5
 30
-21.48015785217285
 70
   192
  0
VERTEX
  5
584
330
551
100
AcDbEntity
  8
5LA86-GEH1
100
AcDbVertex
100
AcDbPolyFaceMeshVertex
 10
114.3422546386718
 20
780.5
 30
-34.59761428833008
 70
   192
  0
VERTEX
  5
585
330
551
100
AcDbEntity
  8
5LA86-GEH1
100
AcDbVertex
100
AcDbPolyFaceMeshVertex
 10
127.9923706054687
 20
780.5
 30
0.0001068115234375
 70
   192
  0
VERTEX
  5
586
330
551
100
AcDbEntity
  8
5LA86-GEH1
100
AcDbVertex
100
AcDbPolyFaceMeshVertex
 10
99.93537902832031
 20
780.5
 30
-44.7527961730957
 70
   192
  0
VERTEX
  5
587
330
551
100
AcDbEntity
  8
5LA86-GEH1
100
AcDbVertex
100
AcDbPolyFaceMeshVertex
 10
84.13272857666015
 20
780.5
 30
-52.57847213745117
 70
   192
  0
VERTEX
  5
588
330
551
100
AcDbEntity
  8
5LA86-GEH1
100
AcDbVertex
100
AcDbPolyFaceMeshVertex
 10
67.54122924804687
 20
780.5
 30
-58.5221061706543
 70
   192
  0
VERTEX
  5
589
330
551
100
AcDbEntity
  8
5LA86-GEH1
100
AcDbVertex
100
AcDbPolyFaceMeshVertex
 10
33.06999206542969
 20
780.5
 30
-65.8505630493164
 70
   192
  0
VERTEX
  5
58A
330
551
100
AcDbEntity
  8
5LA86-GEH1
100
AcDbVertex
100
AcDbPolyFaceMeshVertex
 10
-2.107367515563964
 20
780.5
 30
-67.99137115478515
 70
   192
  0
VERTEX
  5
58B
330
551
100
AcDbEntity
  8
5LA86-GEH1
100
AcDbVertex
100
AcDbPolyFaceMeshVertex
 10
-37.24420166015625
 20
780.5
 30
-65.26108551025391
 70
   192
  0
VERTEX
  5
58C
330
551
100
AcDbEntity
  8
5LA86-GEH1
100
AcDbVertex
100
AcDbPolyFaceMeshVertex
 10
-71.56139373779296
 20
780.5
 30
-57.25381469726563
 70
   192
  0
VERTEX
  5
58D
330
551
100
AcDbEntity
  8
5LA86-GEH1
100
AcDbVertex
100
AcDbPolyFaceMeshVertex
 10
-130.0
 20
780.5
 30
0.0001144409179688
 70
   192
  0
VERTEX
  5
58E
330
551
100
AcDbEntity
  8
5LA86-GEH1
100
AcDbVertex
100
AcDbPolyFaceMeshVertex
 10
-87.99920654296874
 20
780.5
 30
-50.89189910888672
 70
   192
  0
VERTEX
  5
58F
330
551
100
AcDbEntity
  8
5LA86-GEH1
100
AcDbVertex
100
AcDbPolyFaceMeshVertex
 10
-103.5350723266601
 20
780.5
 30
-42.5601692199707
 70
   192
  0
VERTEX
  5
590
330
551
100
AcDbEntity
  8
5LA86-GEH1
100
AcDbVertex
100
AcDbPolyFaceMeshVertex
 10
-117.463638305664
 20
780.5
 30
-31.75843811035156
 70
   192
  0
VERTEX
  5
591
330
551
100
AcDbEntity
  8
5LA86-GEH1
100
AcDbVertex
100
AcDbPolyFaceMeshVertex
 10
-128.4290313720703
 20
780.5
 30
-17.95615577697754
 70
   192
  0
VERTEX
  5
592
330
551
100
AcDbEntity
  8
5LA86-GEH1
100
AcDbVertex
100
AcDbPolyFaceMeshVertex
 10
-128.10546875
 20
778.7392578124999
 30
-21.65447807312012
 70
   192
  0
VERTEX
  5
593
330
551
100
AcDbEntity
  8
5LA86-GEH1
100
AcDbVertex
100
AcDbPolyFaceMeshVertex
 10
-128.10546875
 20
-778.5
 30
-21.65469551086426
 70
   192
  0
VERTEX
  5
594
330
551
100
AcDbEntity
  8
5LA86-GEH1
100
AcDbVertex
100
AcDbPolyFaceMeshVertex
 10
-128.4290313720703
 20
780.5
 30
-17.95615577697754
 70
   192
  0
VERTEX
  5
595
330
551
100
AcDbEntity
  8
5LA86-GEH1
100
AcDbVertex
100
AcDbPolyFaceMeshVertex
 10
-130.0
 20
-778.5
 30
-0.0000991821289063
 70
   192
  0
VERTEX
  5
596
330
551
100
AcDbEntity
  8
5LA86-GEH1
100
AcDbVertex
100
AcDbPolyFaceMeshVertex
 10
-130.0
 20
780.5
 30
0.0001144409179688
 70
   192
  0
VERTEX
  5
597
330
551
100
AcDbEntity
  8
5LA86-GEH1
100
AcDbVertex
100
AcDbPolyFaceMeshVertex
 10
127.7844619750976
 20
778.5
 30
-22.57858467102051
 70
   192
  0
VERTEX
  5
598
330
551
100
AcDbEntity
  8
5LA86-GEH1
100
AcDbVertex
100
AcDbPolyFaceMeshVertex
 10
127.9449615478515
 20
778.61962890625
 30
-22.11653327941895
 70
   192
  0
VERTEX
  5
599
330
551
100
AcDbEntity
  8
5LA86-GEH1
100
AcDbVertex
100
AcDbPolyFaceMeshVertex
 10
127.7844619750976
 20
-0.000003530087497
 30
-22.57869338989258
 70
   192
  0
VERTEX
  5
59A
330
551
100
AcDbEntity
  8
5LA86-GEH1
100
AcDbVertex
100
AcDbPolyFaceMeshVertex
 10
128.10546875
 20
778.5
 30
-21.65448570251465
 70
   192
  0
VERTEX
  5
59B
330
551
100
AcDbEntity
  8
5LA86-GEH1
100
AcDbVertex
100
AcDbPolyFaceMeshVertex
 10
128.10546875
 20
-778.5
 30
-21.65470314025879
 70
   192
  0
VERTEX
  5
59C
330
551
100
AcDbEntity
  8
5LA86-GEH1
100
AcDbVertex
100
AcDbPolyFaceMeshVertex
 10
127.9449615478515
 20
-778.61962890625
 30
-22.11675071716308
 70
   192
  0
VERTEX
  5
59D
330
551
100
AcDbEntity
  8
5LA86-GEH1
100
AcDbVertex
100
AcDbPolyFaceMeshVertex
 10
127.7844619750976
 20
-778.5
 30
-22.57880210876465
 70
   192
  0
VERTEX
  5
59E
330
551
100
AcDbEntity
  8
5LA86-GEH1
100
AcDbVertex
100
AcDbPolyFaceMeshVertex
 10
130.0
 20
778.5
 30
0.0000991821289063
 70
   192
  0
VERTEX
  5
59F
330
551
100
AcDbEntity
  8
5LA86-GEH1
100
AcDbVertex
100
AcDbPolyFaceMeshVertex
 10
130.0
 20
-778.5
 30
-0.0001144409179688
 70
   192
  0
VERTEX
  5
5A0
330
551
100
AcDbEntity
  8
5LA86-GEH1
100
AcDbVertex
100
AcDbPolyFaceMeshVertex
 10
128.10546875
 20
778.5
 30
-21.65448570251465
 70
   192
  0
VERTEX
  5
5A1
330
551
100
AcDbEntity
  8
5LA86-GEH1
100
AcDbVertex
100
AcDbPolyFaceMeshVertex
 10
128.10546875
 20
-778.5
 30
-21.65470314025879
 70
   192
  0
VERTEX
  5
5A2
330
551
100
AcDbEntity
  8
5LA86-GEH1
100
AcDbVertex
100
AcDbPolyFaceMeshVertex
 10
130.0
 20
-778.5
 30
-0.0001144409179688
 70
   192
  0
VERTEX
  5
5A3
330
551
100
AcDbEntity
  8
5LA86-GEH1
100
AcDbVertex
100
AcDbPolyFaceMeshVertex
 10
130.0
 20
778.5
 30
0.0000991821289063
 70
   192
  0
VERTEX
  5
5A4
330
551
100
AcDbEntity
  8
5LA86-GEH1
100
AcDbVertex
100
AcDbPolyFaceMeshVertex
 10
127.9923706054687
 20
-780.5
 30
-0.0001068115234375
 70
   192
  0
VERTEX
  5
5A5
330
551
100
AcDbEntity
  8
5LA86-GEH1
100
AcDbVertex
100
AcDbPolyFaceMeshVertex
 10
127.9923706054687
 20
780.5
 30
0.0001068115234375
 70
   192
  0
VERTEX
  5
5A6
330
551
100
AcDbEntity
  8
5LA86-GEH1
100
AcDbVertex
100
AcDbPolyFaceMeshVertex
 10
-127.9923706054687
 20
-780.5
 30
-0.0001068115234375
 70
   192
  0
VERTEX
  5
5A7
330
551
100
AcDbEntity
  8
5LA86-GEH1
100
AcDbVertex
100
AcDbPolyFaceMeshVertex
 10
-130.0
 20
780.5
 30
0.0001144409179688
 70
   192
  0
VERTEX
  5
5A8
330
551
100
AcDbEntity
  8
5LA86-GEH1
100
AcDbVertex
100
AcDbPolyFaceMeshVertex
 10
-130.0
 20
-778.5
 30
-0.0000991821289063
 70
   192
  0
VERTEX
  5
5A9
330
551
100
AcDbEntity
  8
5LA86-GEH1
100
AcDbVertex
100
AcDbPolyFaceMeshVertex
 10
-127.9923706054687
 20
-780.5
 30
-0.0001068115234375
 70
   192
  0
VERTEX
  5
5AA
330
551
100
AcDbEntity
  8
5LA86-GEH1
100
AcDbVertex
100
AcDbPolyFaceMeshVertex
 10
-130.0
 20
-778.5
 30
-0.0000991821289063
 70
   192
  0
VERTEX
  5
5AB
330
551
100
AcDbEntity
  8
5LA86-GEH1
100
AcDbVertex
100
AcDbPolyFaceMeshVertex
 10
-126.1130828857422
 20
-780.5
 30
-21.48039436340332
 70
   192
  0
VERTEX
  5
5AC
330
551
100
AcDbEntity
  8
5LA86-GEH1
100
AcDbVertex
100
AcDbPolyFaceMeshVertex
 10
-128.10546875
 20
-778.5
 30
-21.65469551086426
 70
   192
  0
VERTEX
  5
5AD
330
551
100
AcDbEntity
  8
5LA86-GEH1
100
AcDbVertex
100
AcDbPolyFaceMeshVertex
 10
-127.9449615478515
 20
-778.61962890625
 30
-22.11674690246582
 70
   192
  0
VERTEX
  5
5AE
330
551
100
AcDbEntity
  8
5LA86-GEH1
100
AcDbVertex
100
AcDbPolyFaceMeshVertex
 10
-126.1130828857422
 20
-780.5
 30
-21.48039436340332
 70
   192
  0
VERTEX
  5
5AF
330
551
100
AcDbEntity
  8
5LA86-GEH1
100
AcDbVertex
100
AcDbPolyFaceMeshVertex
 10
-114.5670928955078
 20
-780.5
 30
-34.40377044677735
 70
   192
  0
VERTEX
  5
5B0
330
551
100
AcDbEntity
  8
5LA86-GEH1
100
AcDbVertex
100
AcDbPolyFaceMeshVertex
 10
-127.9923706054687
 20
-780.5
 30
-0.0001068115234375
 70
   192
  0
VERTEX
  5
5B1
330
551
100
AcDbEntity
  8
5LA86-GEH1
100
AcDbVertex
100
AcDbPolyFaceMeshVertex
 10
-100.3982238769531
 20
-780.5
 30
-44.48255920410156
 70
   192
  0
VERTEX
  5
5B2
330
551
100
AcDbEntity
  8
5LA86-GEH1
100
AcDbVertex
100
AcDbPolyFaceMeshVertex
 10
-84.87606811523438
 20
-780.5
 30
-52.26367950439453
 70
   192
  0
VERTEX
  5
5B3
330
551
100
AcDbEntity
  8
5LA86-GEH1
100
AcDbVertex
100
AcDbPolyFaceMeshVertex
 10
-68.55845642089843
 20
-780.5
 30
-58.21067428588867
 70
   192
  0
VERTEX
  5
5B4
330
551
100
AcDbEntity
  8
5LA86-GEH1
100
AcDbVertex
100
AcDbPolyFaceMeshVertex
 10
127.9923706054687
 20
-780.5
 30
-0.0001068115234375
 70
   192
  0
VERTEX
  5
5B5
330
551
100
AcDbEntity
  8
5LA86-GEH1
100
AcDbVertex
100
AcDbPolyFaceMeshVertex
 10
-34.6417236328125
 20
-780.5
 30
-65.63744354248047
 70
   192
  0
VERTEX
  5
5B6
330
551
100
AcDbEntity
  8
5LA86-GEH1
100
AcDbVertex
100
AcDbPolyFaceMeshVertex
 10
-0.0000009536743164
 20
-780.5
 30
-68.00011444091797
 70
   192
  0
VERTEX
  5
5B7
330
551
100
AcDbEntity
  8
5LA86-GEH1
100
AcDbVertex
100
AcDbPolyFaceMeshVertex
 10
34.6417236328125
 20
-780.5
 30
-65.63744354248047
 70
   192
  0
VERTEX
  5
5B8
330
551
100
AcDbEntity
  8
5LA86-GEH1
100
AcDbVertex
100
AcDbPolyFaceMeshVertex
 10
68.55828857421875
 20
-780.5
 30
-58.20941543579102
 70
   192
  0
VERTEX
  5
5B9
330
551
100
AcDbEntity
  8
5LA86-GEH1
100
AcDbVertex
100
AcDbPolyFaceMeshVertex
 10
84.87606811523438
 20
-780.5
 30
-52.263671875
 70
   192
  0
VERTEX
  5
5BA
330
551
100
AcDbEntity
  8
5LA86-GEH1
100
AcDbVertex
100
AcDbPolyFaceMeshVertex
 10
100.3982162475586
 20
-780.5
 30
-44.48255920410156
 70
   192
  0
VERTEX
  5
5BB
330
551
100
AcDbEntity
  8
5LA86-GEH1
100
AcDbVertex
100
AcDbPolyFaceMeshVertex
 10
114.5671005249023
 20
-780.5
 30
-34.40377807617188
 70
   192
  0
VERTEX
  5
5BC
330
551
100
AcDbEntity
  8
5LA86-GEH1
100
AcDbVertex
100
AcDbPolyFaceMeshVertex
 10
126.1130828857422
 20
-780.5
 30
-21.48037528991699
 70
   192
  0
VERTEX
  5
5BD
330
551
100
AcDbEntity
  8
5LA86-GEH1
100
AcDbVertex
100
AcDbPolyFaceMeshVertex
 10
127.9449615478515
 20
-778.61962890625
 30
-22.11675071716308
 70
   192
  0
VERTEX
  5
5BE
330
551
100
AcDbEntity
  8
5LA86-GEH1
100
AcDbVertex
100
AcDbPolyFaceMeshVertex
 10
128.10546875
 20
-778.5
 30
-21.65470314025879
 70
   192
  0
VERTEX
  5
5BF
330
551
100
AcDbEntity
  8
5LA86-GEH1
100
AcDbVertex
100
AcDbPolyFaceMeshVertex
 10
126.1130828857422
 20
-780.5
 30
-21.48037528991699
 70
   192
  0
VERTEX
  5
5C0
330
551
100
AcDbEntity
  8
5LA86-GEH1
100
AcDbVertex
100
AcDbPolyFaceMeshVertex
 10
127.9923706054687
 20
-780.5
 30
-0.0001068115234375
 70
   192
  0
VERTEX
  5
5C1
330
551
100
AcDbEntity
  8
5LA86-GEH1
100
AcDbVertex
100
AcDbPolyFaceMeshVertex
 10
130.0
 20
-778.5
 30
-0.0001144409179688
 70
   192
  0
VERTEX
  5
5C2
330
551
100
AcDbEntity
  8
5LA86-GEH1
100
AcDbVertex
100
AcDbPolyFaceMeshVertex
 10
-114.5670928955078
 20
-780.5
 30
-34.40377044677735
 70
   192
  0
VERTEX
  5
5C3
330
551
100
AcDbEntity
  8
5LA86-GEH1
100
AcDbVertex
100
AcDbPolyFaceMeshVertex
 10
-126.1130828857422
 20
-780.5
 30
-21.48039436340332
 70
   192
  0
VERTEX
  5
5C4
330
551
100
AcDbEntity
  8
5LA86-GEH1
100
AcDbVertex
100
AcDbPolyFaceMeshVertex
 10
-119.323974609375
 20
-779.4999999999999
 30
-31.33057403564453
 70
   192
  0
VERTEX
  5
5C5
330
551
100
AcDbEntity
  8
5LA86-GEH1
100
AcDbVertex
100
AcDbPolyFaceMeshVertex
 10
-127.9449615478515
 20
-778.61962890625
 30
-22.11674690246582
 70
   192
  0
VERTEX
  5
5C6
330
551
100
AcDbEntity
  8
5LA86-GEH1
100
AcDbVertex
100
AcDbPolyFaceMeshVertex
 10
-127.7844543457031
 20
-778.5
 30
-22.57879829406738
 70
   192
  0
VERTEX
  5
5C7
330
551
100
AcDbEntity
  8
5LA86-GEH1
100
AcDbVertex
100
AcDbPolyFaceMeshVertex
 10
-115.8776550292968
 20
-778.5
 30
-35.9145622253418
 70
   192
  0
VERTEX
  5
5C8
330
551
100
AcDbEntity
  8
5LA86-GEH1
100
AcDbVertex
100
AcDbPolyFaceMeshVertex
 10
-106.8167953491211
 20
-779.4999999999999
 30
-41.59904861450195
 70
   192
  0
VERTEX
  5
5C9
330
551
100
AcDbEntity
  8
5LA86-GEH1
100
AcDbVertex
100
AcDbPolyFaceMeshVertex
 10
-100.3982238769531
 20
-780.5
 30
-44.48255920410156
 70
   192
  0
VERTEX
  5
5CA
330
551
100
AcDbEntity
  8
5LA86-GEH1
100
AcDbVertex
100
AcDbPolyFaceMeshVertex
 10
-84.00688934326172
 20
-779.4999999999999
 30
-53.71399307250976
 70
   192
  0
VERTEX
  5
5CB
330
551
100
AcDbEntity
  8
5LA86-GEH1
100
AcDbVertex
100
AcDbPolyFaceMeshVertex
 10
-84.87606811523438
 20
-780.5
 30
-52.26367950439453
 70
   192
  0
VERTEX
  5
5CC
330
551
100
AcDbEntity
  8
5LA86-GEH1
100
AcDbVertex
100
AcDbPolyFaceMeshVertex
 10
-68.55845642089843
 20
-780.5
 30
-58.21067428588867
 70
   192
  0
VERTEX
  5
5CD
330
551
100
AcDbEntity
  8
5LA86-GEH1
100
AcDbVertex
100
AcDbPolyFaceMeshVertex
 10
-59.53121566772461
 20
-779.4999999999999
 30
-61.79450988769531
 70
   192
  0
VERTEX
  5
5CE
330
551
100
AcDbEntity
  8
5LA86-GEH1
100
AcDbVertex
100
AcDbPolyFaceMeshVertex
 10
-34.6417236328125
 20
-780.5
 30
-65.63744354248047
 70
   192
  0
VERTEX
  5
5CF
330
551
100
AcDbEntity
  8
5LA86-GEH1
100
AcDbVertex
100
AcDbPolyFaceMeshVertex
 10
-8.607568740844726
 20
-779.4999999999999
 30
-68.85787200927734
 70
   192
  0
VERTEX
  5
5D0
330
551
100
AcDbEntity
  8
5LA86-GEH1
100
AcDbVertex
100
AcDbPolyFaceMeshVertex
 10
-34.6417236328125
 20
-780.5
 30
-65.63744354248047
 70
   192
  0
VERTEX
  5
5D1
330
551
100
AcDbEntity
  8
5LA86-GEH1
100
AcDbVertex
100
AcDbPolyFaceMeshVertex
 10
-34.91674423217773
 20
-778.5
 30
-67.61845397949219
 70
   192
  0
VERTEX
  5
5D2
330
551
100
AcDbEntity
  8
5LA86-GEH1
100
AcDbVertex
100
AcDbPolyFaceMeshVertex
 10
-0.0000000000000113
 20
-778.5
 30
-70.00010681152343
 70
   192
  0
VERTEX
  5
5D3
330
551
100
AcDbEntity
  8
5LA86-GEH1
100
AcDbVertex
100
AcDbPolyFaceMeshVertex
 10
-101.4146575927734
 20
-778.5
 30
-46.20510864257812
 70
   192
  0
VERTEX
  5
5D4
330
551
100
AcDbEntity
  8
5LA86-GEH1
100
AcDbVertex
100
AcDbPolyFaceMeshVertex
 10
-85.65939331054687
 20
-778.5
 30
-54.10390090942382
 70
   192
  0
VERTEX
  5
5D5
330
551
100
AcDbEntity
  8
5LA86-GEH1
100
AcDbVertex
100
AcDbPolyFaceMeshVertex
 10
-69.14926147460938
 20
-778.5
 30
-60.12150573730469
 70
   192
  0
VERTEX
  5
5D6
330
551
100
AcDbEntity
  8
5LA86-GEH1
100
AcDbVertex
100
AcDbPolyFaceMeshVertex
 10
-34.6417236328125
 20
-780.5
 30
-65.63744354248047
 70
   192
  0
VERTEX
  5
5D7
330
551
100
AcDbEntity
  8
5LA86-GEH1
100
AcDbVertex
100
AcDbPolyFaceMeshVertex
 10
17.12605667114258
 20
-779.4999999999999
 30
-68.43235778808594
 70
   192
  0
VERTEX
  5
5D8
330
551
100
AcDbEntity
  8
5LA86-GEH1
100
AcDbVertex
100
AcDbPolyFaceMeshVertex
 10
34.91674041748047
 20
-778.5
 30
-67.61845397949219
 70
   192
  0
VERTEX
  5
5D9
330
551
100
AcDbEntity
  8
5LA86-GEH1
100
AcDbVertex
100
AcDbPolyFaceMeshVertex
 10
42.68497085571289
 20
-779.4999999999999
 30
-65.39546966552734
 70
   192
  0
VERTEX
  5
5DA
330
551
100
AcDbEntity
  8
5LA86-GEH1
100
AcDbVertex
100
AcDbPolyFaceMeshVertex
 10
69.14916229248047
 20
-778.5
 30
-60.12014389038085
 70
   192
  0
VERTEX
  5
5DB
330
551
100
AcDbEntity
  8
5LA86-GEH1
100
AcDbVertex
100
AcDbPolyFaceMeshVertex
 10
67.7615966796875
 20
-779.4999999999999
 30
-59.49891281127929
 70
   192
  0
VERTEX
  5
5DC
330
551
100
AcDbEntity
  8
5LA86-GEH1
100
AcDbVertex
100
AcDbPolyFaceMeshVertex
 10
85.65940093994141
 20
-778.5
 30
-54.10390472412109
 70
   192
  0
VERTEX
  5
5DD
330
551
100
AcDbEntity
  8
5LA86-GEH1
100
AcDbVertex
100
AcDbPolyFaceMeshVertex
 10
91.80616760253906
 20
-779.4999999999999
 30
-50.21372985839843
 70
   192
  0
VERTEX
  5
5DE
330
551
100
AcDbEntity
  8
5LA86-GEH1
100
AcDbVertex
100
AcDbPolyFaceMeshVertex
 10
101.4146575927734
 20
-778.5
 30
-46.20510482788086
 70
   192
  0
VERTEX
  5
5DF
330
551
100
AcDbEntity
  8
5LA86-GEH1
100
AcDbVertex
100
AcDbPolyFaceMeshVertex
 10
109.1908416748047
 20
-779.4999999999999
 30
-39.93244171142578
 70
   192
  0
VERTEX
  5
5E0
330
551
100
AcDbEntity
  8
5LA86-GEH1
100
AcDbVertex
100
AcDbPolyFaceMeshVertex
 10
115.8776702880859
 20
-778.5
 30
-35.9145622253418
 70
   192
  0
VERTEX
  5
5E1
330
551
100
AcDbEntity
  8
5LA86-GEH1
100
AcDbVertex
100
AcDbPolyFaceMeshVertex
 10
120.3347778320312
 20
-779.4999999999999
 30
-30.29129028320312
 70
   192
  0
VERTEX
  5
5E2
330
551
100
AcDbEntity
  8
5LA86-GEH1
100
AcDbVertex
100
AcDbPolyFaceMeshVertex
 10
127.7844619750976
 20
-778.5
 30
-22.57880210876465
 70
   192
  0
VERTEX
  5
5E3
330
551
100
AcDbEntity
  8
5LA86-GEH1
100
AcDbVertex
100
AcDbPolyFaceMeshVertex
 10
126.1130828857422
 20
-780.5
 30
-21.48037528991699
 70
   192
  0
VERTEX
  5
5E4
330
551
100
AcDbEntity
  8
5LA86-GEH1
100
AcDbVertex
100
AcDbPolyFaceMeshVertex
 10
127.9449615478515
 20
-778.61962890625
 30
-22.11675071716308
 70
   192
  0
VERTEX
  5
5E5
330
551
100
AcDbEntity
  8
5LA86-GEH1
100
AcDbVertex
100
AcDbPolyFaceMeshVertex
 10
114.5671005249023
 20
-780.5
 30
-34.40377807617188
 70
   192
  0
VERTEX
  5
5E6
330
551
100
AcDbEntity
  8
5LA86-GEH1
100
AcDbVertex
100
AcDbPolyFaceMeshVertex
 10
100.3982162475586
 20
-780.5
 30
-44.48255920410156
 70
   192
  0
VERTEX
  5
5E7
330
551
100
AcDbEntity
  8
5LA86-GEH1
100
AcDbVertex
100
AcDbPolyFaceMeshVertex
 10
84.87606811523438
 20
-780.5
 30
-52.263671875
 70
   192
  0
VERTEX
  5
5E8
330
551
100
AcDbEntity
  8
5LA86-GEH1
100
AcDbVertex
100
AcDbPolyFaceMeshVertex
 10
68.55828857421875
 20
-780.5
 30
-58.20941543579102
 70
   192
  0
VERTEX
  5
5E9
330
551
100
AcDbEntity
  8
5LA86-GEH1
100
AcDbVertex
100
AcDbPolyFaceMeshVertex
 10
34.6417236328125
 20
-780.5
 30
-65.63744354248047
 70
   192
  0
VERTEX
  5
5EA
330
551
100
AcDbEntity
  8
5LA86-GEH1
100
AcDbVertex
100
AcDbPolyFaceMeshVertex
 10
-0.0000009536743164
 20
-780.5
 30
-68.00011444091797
 70
   192
  0
VERTEX
  5
5EB
330
551
100
AcDbEntity
  8
5LA86-GEH1
100
AcDbVertex
100
AcDbPolyFaceMeshVertex
 10
122.9267959594726
 20
-722.25
 30
-28.93513679504394
 70
   192
  0
VERTEX
  5
5EC
330
551
100
AcDbEntity
  8
5LA86-GEH1
100
AcDbVertex
100
AcDbPolyFaceMeshVertex
 10
113.7174301147461
 20
-722.25
 30
-37.72510528564453
 70
   192
  0
VERTEX
  5
5ED
330
551
100
AcDbEntity
  8
5LA86-GEH1
100
AcDbVertex
100
AcDbPolyFaceMeshVertex
 10
115.9973907470703
 20
-722.25
 30
-29.27386665344238
 70
   192
  0
VERTEX
  5
5EE
330
551
100
AcDbEntity
  8
5LA86-GEH1
100
AcDbVertex
100
AcDbPolyFaceMeshVertex
 10
108.3521270751953
 20
-722.25
 30
-35.82252502441406
 70
   192
  0
VERTEX
  5
5EF
330
551
100
AcDbEntity
  8
5LA86-GEH1
100
AcDbVertex
100
AcDbPolyFaceMeshVertex
 10
102.1869277954101
 20
-722.25
 30
-45.74399566650391
 70
   192
  0
VERTEX
  5
5F0
330
551
100
AcDbEntity
  8
5LA86-GEH1
100
AcDbVertex
100
AcDbPolyFaceMeshVertex
 10
98.52985382080078
 20
-722.25
 30
-42.3268814086914
 70
   192
  0
VERTEX
  5
5F1
330
551
100
AcDbEntity
  8
5LA86-GEH1
100
AcDbVertex
100
AcDbPolyFaceMeshVertex
 10
88.56440734863282
 20
-722.25
 30
-52.83132553100585
 70
   192
  0
VERTEX
  5
5F2
330
551
100
AcDbEntity
  8
5LA86-GEH1
100
AcDbVertex
100
AcDbPolyFaceMeshVertex
 10
86.40780639648438
 20
-722.25
 30
-48.53401184082031
 70
   192
  0
VERTEX
  5
5F3
330
551
100
AcDbEntity
  8
5LA86-GEH1
100
AcDbVertex
100
AcDbPolyFaceMeshVertex
 10
73.19874572753906
 20
-722.25
 30
-58.8168716430664
 70
   192
  0
VERTEX
  5
5F4
330
551
100
AcDbEntity
  8
5LA86-GEH1
100
AcDbVertex
100
AcDbPolyFaceMeshVertex
 10
71.99123382568359
 20
-722.25
 30
-54.15507888793945
 70
   192
  0
VERTEX
  5
5F5
330
551
100
AcDbEntity
  8
5LA86-GEH1
100
AcDbVertex
100
AcDbPolyFaceMeshVertex
 10
56.33914947509765
 20
-722.25
 30
-63.61304473876953
 70
   192
  0
VERTEX
  5
5F6
330
551
100
AcDbEntity
  8
5LA86-GEH1
100
AcDbVertex
100
AcDbPolyFaceMeshVertex
 10
55.44571304321289
 20
-722.25
 30
-58.88752746582031
 70
   192
  0
VERTEX
  5
5F7
330
551
100
AcDbEntity
  8
5LA86-GEH1
100
AcDbVertex
100
AcDbPolyFaceMeshVertex
 10
38.25468444824219
 20
-722.25
 30
-67.13087463378906
 70
   192
  0
VERTEX
  5
5F8
330
551
100
AcDbEntity
  8
5LA86-GEH1
100
AcDbVertex
100
AcDbPolyFaceMeshVertex
 10
37.11493682861328
 20
-722.25
 30
-62.44525909423828
 70
   192
  0
VERTEX
  5
5F9
330
551
100
AcDbEntity
  8
5LA86-GEH1
100
AcDbVertex
100
AcDbPolyFaceMeshVertex
 10
17.51381111145019
 20
-722.25
 30
-64.59347534179688
 70
   192
  0
VERTEX
  5
5FA
330
551
100
AcDbEntity
  8
5LA86-GEH1
100
AcDbVertex
100
AcDbPolyFaceMeshVertex
 10
0.4016284942626954
 20
-722.25
 30
-69.99935150146484
 70
   192
  0
VERTEX
  5
5FB
330
551
100
AcDbEntity
  8
5LA86-GEH1
100
AcDbVertex
100
AcDbPolyFaceMeshVertex
 10
-2.708658695220947
 20
-722.25
 30
-65.18193054199219
 70
   192
  0
VERTEX
  5
5FC
330
551
100
AcDbEntity
  8
5LA86-GEH1
100
AcDbVertex
100
AcDbPolyFaceMeshVertex
 10
-22.83409118652344
 20
-722.25
 30
-64.16834259033203
 70
   192
  0
VERTEX
  5
5FD
330
551
100
AcDbEntity
  8
5LA86-GEH1
100
AcDbVertex
100
AcDbPolyFaceMeshVertex
 10
-37.52970123291016
 20
-722.25
 30
-67.24095153808594
 70
   192
  0
VERTEX
  5
5FE
330
551
100
AcDbEntity
  8
5LA86-GEH1
100
AcDbVertex
100
AcDbPolyFaceMeshVertex
 10
-42.15514755249023
 20
-722.25
 30
-61.62527465820312
 70
   192
  0
VERTEX
  5
5FF
330
551
100
AcDbEntity
  8
5LA86-GEH1
100
AcDbVertex
100
AcDbPolyFaceMeshVertex
 10
-55.75431060791015
 20
-722.25
 30
-63.7514419555664
 70
   192
  0
VERTEX
  5
600
330
551
100
AcDbEntity
  8
5LA86-GEH1
100
AcDbVertex
100
AcDbPolyFaceMeshVertex
 10
-60.05320358276367
 20
-722.25
 30
-57.72832489013672
 70
   192
  0
VERTEX
  5
601
330
551
100
AcDbEntity
  8
5LA86-GEH1
100
AcDbVertex
100
AcDbPolyFaceMeshVertex
 10
-72.79255676269531
 20
-722.25
 30
-58.95231628417969
 70
   192
  0
VERTEX
  5
602
330
551
100
AcDbEntity
  8
5LA86-GEH1
100
AcDbVertex
100
AcDbPolyFaceMeshVertex
 10
-76.05670166015625
 20
-722.25
 30
-52.72946929931641
 70
   192
  0
VERTEX
  5
603
330
551
100
AcDbEntity
  8
5LA86-GEH1
100
AcDbVertex
100
AcDbPolyFaceMeshVertex
 10
-88.32073974609375
 20
-722.25
 30
-52.94092559814453
 70
   192
  0
VERTEX
  5
604
330
551
100
AcDbEntity
  8
5LA86-GEH1
100
AcDbVertex
100
AcDbPolyFaceMeshVertex
 10
-89.87007141113281
 20
-722.25
 30
-46.92250442504882
 70
   192
  0
VERTEX
  5
605
330
551
100
AcDbEntity
  8
5LA86-GEH1
100
AcDbVertex
100
AcDbPolyFaceMeshVertex
 10
-102.0656585693359
 20
-722.25
 30
-45.8171501159668
 70
   192
  0
VERTEX
  5
606
330
551
100
AcDbEntity
  8
5LA86-GEH1
100
AcDbVertex
100
AcDbPolyFaceMeshVertex
 10
-101.3729705810547
 20
-722.25
 30
-40.60892868041992
 70
   192
  0
VERTEX
  5
607
330
551
100
AcDbEntity
  8
5LA86-GEH1
100
AcDbVertex
100
AcDbPolyFaceMeshVertex
 10
-113.6631622314453
 20
-722.25
 30
-37.77029418945313
 70
   192
  0
VERTEX
  5
608
330
551
100
AcDbEntity
  8
5LA86-GEH1
100
AcDbVertex
100
AcDbPolyFaceMeshVertex
 10
-110.5978240966797
 20
-722.25
 30
-34.06988906860352
 70
   192
  0
VERTEX
  5
609
330
551
100
AcDbEntity
  8
5LA86-GEH1
100
AcDbVertex
100
AcDbPolyFaceMeshVertex
 10
-117.6953430175781
 20
-722.25
 30
-27.54597282409668
 70
   192
  0
VERTEX
  5
60A
330
551
100
AcDbEntity
  8
5LA86-GEH1
100
AcDbVertex
100
AcDbPolyFaceMeshVertex
 10
-122.9267883300781
 20
-722.25
 30
-28.93512916564942
 70
   192
  0
VERTEX
  5
60B
330
551
100
AcDbEntity
  8
5LA86-GEH1
100
AcDbVertex
100
AcDbPolyFaceMeshVertex
 10
-117.6953430175781
 20
722.25
 30
-27.5457706451416
 70
   192
  0
VERTEX
  5
60C
330
551
100
AcDbEntity
  8
5LA86-GEH1
100
AcDbVertex
100
AcDbPolyFaceMeshVertex
 10
-117.6953430175781
 20
-0.0000023759791929
 30
-27.54587173461914
 70
   192
  0
VERTEX
  5
60D
330
551
100
AcDbEntity
  8
5LA86-GEH1
100
AcDbVertex
100
AcDbPolyFaceMeshVertex
 10
-122.9267883300781
 20
722.25
 30
-28.93492698669433
 70
   192
  0
VERTEX
  5
60E
330
551
100
AcDbEntity
  8
5LA86-GEH1
100
AcDbVertex
100
AcDbPolyFaceMeshVertex
 10
-122.9267883300781
 20
-0.0000021734347229
 30
-28.93502807617188
 70
   192
  0
VERTEX
  5
60F
330
551
100
AcDbEntity
  8
5LA86-GEH1
100
AcDbVertex
100
AcDbPolyFaceMeshVertex
 10
-117.6953430175781
 20
-722.25
 30
-27.54597282409668
 70
   192
  0
VERTEX
  5
610
330
551
100
AcDbEntity
  8
5LA86-GEH1
100
AcDbVertex
100
AcDbPolyFaceMeshVertex
 10
-122.9267883300781
 20
-722.25
 30
-28.93512916564942
 70
   192
  0
VERTEX
  5
611
330
551
100
AcDbEntity
  8
5LA86-GEH1
100
AcDbVertex
100
AcDbPolyFaceMeshVertex
 10
122.9268035888672
 20
722.25
 30
-28.93493461608887
 70
   192
  0
VERTEX
  5
612
330
551
100
AcDbEntity
  8
5LA86-GEH1
100
AcDbVertex
100
AcDbPolyFaceMeshVertex
 10
122.9267959594726
 20
-0.000002639470722
 30
-28.93503570556641
 70
   192
  0
VERTEX
  5
613
330
551
100
AcDbEntity
  8
5LA86-GEH1
100
AcDbVertex
100
AcDbPolyFaceMeshVertex
 10
115.9973983764648
 20
722.25
 30
-29.27366447448731
 70
   192
  0
VERTEX
  5
614
330
551
100
AcDbEntity
  8
5LA86-GEH1
100
AcDbVertex
100
AcDbPolyFaceMeshVertex
 10
115.9973983764648
 20
-0.0000025793644909
 30
-29.27376556396485
 70
   192
  0
VERTEX
  5
615
330
551
100
AcDbEntity
  8
5LA86-GEH1
100
AcDbVertex
100
AcDbPolyFaceMeshVertex
 10
122.9267959594726
 20
-722.25
 30
-28.93513679504394
 70
   192
  0
VERTEX
  5
616
330
551
100
AcDbEntity
  8
5LA86-GEH1
100
AcDbVertex
100
AcDbPolyFaceMeshVertex
 10
115.9973907470703
 20
-722.25
 30
-29.27386665344238
 70
   192
  0
VERTEX
  5
617
330
551
100
AcDbEntity
  8
5LA86-GEH1
100
AcDbVertex
100
AcDbPolyFaceMeshVertex
 10
-117.6953430175781
 20
-0.0000023759791929
 30
-27.54587173461914
 70
   192
  0
VERTEX
  5
618
330
551
100
AcDbEntity
  8
5LA86-GEH1
100
AcDbVertex
100
AcDbPolyFaceMeshVertex
 10
-117.6953430175781
 20
722.25
 30
-27.5457706451416
 70
   192
  0
VERTEX
  5
619
330
551
100
AcDbEntity
  8
5LA86-GEH1
100
AcDbVertex
100
AcDbPolyFaceMeshVertex
 10
-113.147720336914
 20
-0.0000017780261032
 30
-31.92022705078125
 70
   192
  0
VERTEX
  5
61A
330
551
100
AcDbEntity
  8
5LA86-GEH1
100
AcDbVertex
100
AcDbPolyFaceMeshVertex
 10
-110.5978240966797
 20
722.25
 30
-34.0696907043457
 70
   192
  0
VERTEX
  5
61B
330
551
100
AcDbEntity
  8
5LA86-GEH1
100
AcDbVertex
100
AcDbPolyFaceMeshVertex
 10
-105.8160400390625
 20
-0.0000009950484809
 30
-37.66695404052735
 70
   192
  0
VERTEX
  5
61C
330
551
100
AcDbEntity
  8
5LA86-GEH1
100
AcDbVertex
100
AcDbPolyFaceMeshVertex
 10
-101.3729705810547
 20
722.25
 30
-40.6087303161621
 70
   192
  0
VERTEX
  5
61D
330
551
100
AcDbEntity
  8
5LA86-GEH1
100
AcDbVertex
100
AcDbPolyFaceMeshVertex
 10
-96.77803039550781
 20
-0.0000002269970025
 30
-43.32936859130859
 70
   192
  0
VERTEX
  5
61E
330
551
100
AcDbEntity
  8
5LA86-GEH1
100
AcDbVertex
100
AcDbPolyFaceMeshVertex
 10
-89.87007141113281
 20
722.25
 30
-46.92230606079101
 70
   192
  0
VERTEX
  5
61F
330
551
100
AcDbEntity
  8
5LA86-GEH1
100
AcDbVertex
100
AcDbPolyFaceMeshVertex
 10
-85.96714782714844
 20
0.0000005015186844
 30
-48.73089599609375
 70
   192
  0
VERTEX
  5
620
330
551
100
AcDbEntity
  8
5LA86-GEH1
100
AcDbVertex
100
AcDbPolyFaceMeshVertex
 10
-76.05670166015625
 20
722.25
 30
-52.7292709350586
 70
   192
  0
VERTEX
  5
621
330
551
100
AcDbEntity
  8
5LA86-GEH1
100
AcDbVertex
100
AcDbPolyFaceMeshVertex
 10
-73.39574432373047
 20
0.0000011633222812
 30
-53.67539596557617
 70
   192
  0
VERTEX
  5
622
330
551
100
AcDbEntity
  8
5LA86-GEH1
100
AcDbVertex
100
AcDbPolyFaceMeshVertex
 10
-60.0531997680664
 20
722.25
 30
-57.72812271118164
 70
   192
  0
VERTEX
  5
623
330
551
100
AcDbEntity
  8
5LA86-GEH1
100
AcDbVertex
100
AcDbPolyFaceMeshVertex
 10
-59.17134094238281
 20
0.0000017303517552
 30
-57.95902252197265
 70
   192
  0
VERTEX
  5
624
330
551
100
AcDbEntity
  8
5LA86-GEH1
100
AcDbVertex
100
AcDbPolyFaceMeshVertex
 10
-43.50637435913085
 20
0.0000021758144158
 30
-61.38565063476562
 70
   192
  0
VERTEX
  5
625
330
551
100
AcDbEntity
  8
5LA86-GEH1
100
AcDbVertex
100
AcDbPolyFaceMeshVertex
 10
-60.05320358276367
 20
-722.25
 30
-57.72832489013672
 70
   192
  0
VERTEX
  5
626
330
551
100
AcDbEntity
  8
5LA86-GEH1
100
AcDbVertex
100
AcDbPolyFaceMeshVertex
 10
-42.15514755249023
 20
-722.25
 30
-61.62527465820312
 70
   192
  0
VERTEX
  5
627
330
551
100
AcDbEntity
  8
5LA86-GEH1
100
AcDbVertex
100
AcDbPolyFaceMeshVertex
 10
-24.47860527038574
 20
0.0000025041374556
 30
-64.01348876953125
 70
   192
  0
VERTEX
  5
628
330
551
100
AcDbEntity
  8
5LA86-GEH1
100
AcDbVertex
100
AcDbPolyFaceMeshVertex
 10
-22.83409118652344
 20
-722.25
 30
-64.16834259033203
 70
   192
  0
VERTEX
  5
629
330
551
100
AcDbEntity
  8
5LA86-GEH1
100
AcDbVertex
100
AcDbPolyFaceMeshVertex
 10
-4.60869026184082
 20
0.000002624707804
 30
-65.15461730957031
 70
   192
  0
VERTEX
  5
62A
330
551
100
AcDbEntity
  8
5LA86-GEH1
100
AcDbVertex
100
AcDbPolyFaceMeshVertex
 10
-2.708658695220947
 20
-722.25
 30
-65.18193054199219
 70
   192
  0
VERTEX
  5
62B
330
551
100
AcDbEntity
  8
5LA86-GEH1
100
AcDbVertex
100
AcDbPolyFaceMeshVertex
 10
15.4227991104126
 20
0.0000025277438453
 30
-64.72918701171875
 70
   192
  0
VERTEX
  5
62C
330
551
100
AcDbEntity
  8
5LA86-GEH1
100
AcDbVertex
100
AcDbPolyFaceMeshVertex
 10
17.51381111145019
 20
-722.25
 30
-64.59347534179688
 70
   192
  0
VERTEX
  5
62D
330
551
100
AcDbEntity
  8
5LA86-GEH1
100
AcDbVertex
100
AcDbPolyFaceMeshVertex
 10
34.9173583984375
 20
0.0000022187252853
 30
-62.76717376708984
 70
   192
  0
VERTEX
  5
62E
330
551
100
AcDbEntity
  8
5LA86-GEH1
100
AcDbVertex
100
AcDbPolyFaceMeshVertex
 10
37.11493682861328
 20
-722.25
 30
-62.44525909423828
 70
   192
  0
VERTEX
  5
62F
330
551
100
AcDbEntity
  8
5LA86-GEH1
100
AcDbVertex
100
AcDbPolyFaceMeshVertex
 10
53.23540496826172
 20
0.000001717584496
 30
-59.40357208251953
 70
   192
  0
VERTEX
  5
630
330
551
100
AcDbEntity
  8
5LA86-GEH1
100
AcDbVertex
100
AcDbPolyFaceMeshVertex
 10
55.44571304321289
 20
-722.25
 30
-58.88752746582031
 70
   192
  0
VERTEX
  5
631
330
551
100
AcDbEntity
  8
5LA86-GEH1
100
AcDbVertex
100
AcDbPolyFaceMeshVertex
 10
69.8599853515625
 20
0.0000010557001815
 30
-54.85760498046875
 70
   192
  0
VERTEX
  5
632
330
551
100
AcDbEntity
  8
5LA86-GEH1
100
AcDbVertex
100
AcDbPolyFaceMeshVertex
 10
71.99123382568359
 20
-722.25
 30
-54.15507888793945
 70
   192
  0
VERTEX
  5
633
330
551
100
AcDbEntity
  8
5LA86-GEH1
100
AcDbVertex
100
AcDbPolyFaceMeshVertex
 10
84.435546875
 20
0.0000002715566154
 30
-49.40194320678711
 70
   192
  0
VERTEX
  5
634
330
551
100
AcDbEntity
  8
5LA86-GEH1
100
AcDbVertex
100
AcDbPolyFaceMeshVertex
 10
86.40780639648438
 20
-722.25
 30
-48.53401184082031
 70
   192
  0
VERTEX
  5
635
330
551
100
AcDbEntity
  8
5LA86-GEH1
100
AcDbVertex
100
AcDbPolyFaceMeshVertex
 10
96.77803039550781
 20
-0.0000005938990171
 30
-43.32936859130859
 70
   192
  0
VERTEX
  5
636
330
551
100
AcDbEntity
  8
5LA86-GEH1
100
AcDbVertex
100
AcDbPolyFaceMeshVertex
 10
98.52985382080078
 20
-722.25
 30
-42.3268814086914
 70
   192
  0
VERTEX
  5
637
330
551
100
AcDbEntity
  8
5LA86-GEH1
100
AcDbVertex
100
AcDbPolyFaceMeshVertex
 10
107.6611328125
 20
-0.0000015839503931
 30
-36.33831024169922
 70
   192
  0
VERTEX
  5
638
330
551
100
AcDbEntity
  8
5LA86-GEH1
100
AcDbVertex
100
AcDbPolyFaceMeshVertex
 10
108.3521270751953
 20
-722.25
 30
-35.82252502441406
 70
   192
  0
VERTEX
  5
639
330
551
100
AcDbEntity
  8
5LA86-GEH1
100
AcDbVertex
100
AcDbPolyFaceMeshVertex
 10
115.9973983764648
 20
-0.0000025793644909
 30
-29.27376556396485
 70
   192
  0
VERTEX
  5
63A
330
551
100
AcDbEntity
  8
5LA86-GEH1
100
AcDbVertex
100
AcDbPolyFaceMeshVertex
 10
115.9973907470703
 20
-722.25
 30
-29.27386665344238
 70
   192
  0
VERTEX
  5
63B
330
551
100
AcDbEntity
  8
5LA86-GEH1
100
AcDbVertex
100
AcDbPolyFaceMeshVertex
 10
-42.15514373779297
 20
722.25
 30
-61.62507629394531
 70
   192
  0
VERTEX
  5
63C
330
551
100
AcDbEntity
  8
5LA86-GEH1
100
AcDbVertex
100
AcDbPolyFaceMeshVertex
 10
-22.83408737182617
 20
722.25
 30
-64.16814422607422
 70
   192
  0
VERTEX
  5
63D
330
551
100
AcDbEntity
  8
5LA86-GEH1
100
AcDbVertex
100
AcDbPolyFaceMeshVertex
 10
-2.708655834197998
 20
722.25
 30
-65.18172454833984
 70
   192
  0
VERTEX
  5
63E
330
551
100
AcDbEntity
  8
5LA86-GEH1
100
AcDbVertex
100
AcDbPolyFaceMeshVertex
 10
17.51381301879883
 20
722.25
 30
-64.59326934814453
 70
   192
  0
VERTEX
  5
63F
330
551
100
AcDbEntity
  8
5LA86-GEH1
100
AcDbVertex
100
AcDbPolyFaceMeshVertex
 10
37.11494445800781
 20
722.25
 30
-62.44505310058594
 70
   192
  0
VERTEX
  5
640
330
551
100
AcDbEntity
  8
5LA86-GEH1
100
AcDbVertex
100
AcDbPolyFaceMeshVertex
 10
55.44571685791016
 20
722.25
 30
-58.88732528686523
 70
   192
  0
VERTEX
  5
641
330
551
100
AcDbEntity
  8
5LA86-GEH1
100
AcDbVertex
100
AcDbPolyFaceMeshVertex
 10
71.99124145507813
 20
722.25
 30
-54.15487670898437
 70
   192
  0
VERTEX
  5
642
330
551
100
AcDbEntity
  8
5LA86-GEH1
100
AcDbVertex
100
AcDbPolyFaceMeshVertex
 10
86.4078140258789
 20
722.25
 30
-48.5338134765625
 70
   192
  0
VERTEX
  5
643
330
551
100
AcDbEntity
  8
5LA86-GEH1
100
AcDbVertex
100
AcDbPolyFaceMeshVertex
 10
98.52985382080078
 20
722.25
 30
-42.32668304443359
 70
   192
  0
VERTEX
  5
644
330
551
100
AcDbEntity
  8
5LA86-GEH1
100
AcDbVertex
100
AcDbPolyFaceMeshVertex
 10
108.3521270751953
 20
722.25
 30
-35.82232666015625
 70
   192
  0
VERTEX
  5
645
330
551
100
AcDbEntity
  8
5LA86-GEH1
100
AcDbVertex
100
AcDbPolyFaceMeshVertex
 10
115.9973983764648
 20
722.25
 30
-29.27366447448731
 70
   192
  0
VERTEX
  5
646
330
551
100
AcDbEntity
  8
5LA86-GEH1
100
AcDbVertex
100
AcDbPolyFaceMeshVertex
 10
-76.05670166015625
 20
-722.25
 30
-52.72946929931641
 70
   192
  0
VERTEX
  5
647
330
551
100
AcDbEntity
  8
5LA86-GEH1
100
AcDbVertex
100
AcDbPolyFaceMeshVertex
 10
-89.87007141113281
 20
-722.25
 30
-46.92250442504882
 70
   192
  0
VERTEX
  5
648
330
551
100
AcDbEntity
  8
5LA86-GEH1
100
AcDbVertex
100
AcDbPolyFaceMeshVertex
 10
-101.3729705810547
 20
-722.25
 30
-40.60892868041992
 70
   192
  0
VERTEX
  5
649
330
551
100
AcDbEntity
  8
5LA86-GEH1
100
AcDbVertex
100
AcDbPolyFaceMeshVertex
 10
-110.5978240966797
 20
-722.25
 30
-34.06988906860352
 70
   192
  0
VERTEX
  5
64A
330
551
100
AcDbEntity
  8
5LA86-GEH1
100
AcDbVertex
100
AcDbPolyFaceMeshVertex
 10
-117.6953430175781
 20
-722.25
 30
-27.54597282409668
 70
   192
  0
VERTEX
  5
64B
330
551
100
AcDbEntity
  8
5LA86-GEH1
100
AcDbVertex
100
AcDbPolyFaceMeshVertex
 10
-122.9267883300781
 20
722.25
 30
-28.93492698669433
 70
   192
  0
VERTEX
  5
64C
330
551
100
AcDbEntity
  8
5LA86-GEH1
100
AcDbVertex
100
AcDbPolyFaceMeshVertex
 10
-113.7184295654297
 20
722.25
 30
-37.72409439086914
 70
   192
  0
VERTEX
  5
64D
330
551
100
AcDbEntity
  8
5LA86-GEH1
100
AcDbVertex
100
AcDbPolyFaceMeshVertex
 10
-117.6953430175781
 20
722.25
 30
-27.5457706451416
 70
   192
  0
VERTEX
  5
64E
330
551
100
AcDbEntity
  8
5LA86-GEH1
100
AcDbVertex
100
AcDbPolyFaceMeshVertex
 10
-110.5978240966797
 20
722.25
 30
-34.0696907043457
 70
   192
  0
VERTEX
  5
64F
330
551
100
AcDbEntity
  8
5LA86-GEH1
100
AcDbVertex
100
AcDbPolyFaceMeshVertex
 10
-101.3729705810547
 20
722.25
 30
-40.6087303161621
 70
   192
  0
VERTEX
  5
650
330
551
100
AcDbEntity
  8
5LA86-GEH1
100
AcDbVertex
100
AcDbPolyFaceMeshVertex
 10
-102.1895217895508
 20
722.25
 30
-45.74223327636718
 70
   192
  0
VERTEX
  5
651
330
551
100
AcDbEntity
  8
5LA86-GEH1
100
AcDbVertex
100
AcDbPolyFaceMeshVertex
 10
-89.87007141113281
 20
722.25
 30
-46.92230606079101
 70
   192
  0
VERTEX
  5
652
330
551
100
AcDbEntity
  8
5LA86-GEH1
100
AcDbVertex
100
AcDbPolyFaceMeshVertex
 10
-88.56880187988281
 20
722.25
 30
-52.82915496826172
 70
   192
  0
VERTEX
  5
653
330
551
100
AcDbEntity
  8
5LA86-GEH1
100
AcDbVertex
100
AcDbPolyFaceMeshVertex
 10
-76.05670166015625
 20
722.25
 30
-52.7292709350586
 70
   192
  0
VERTEX
  5
654
330
551
100
AcDbEntity
  8
5LA86-GEH1
100
AcDbVertex
100
AcDbPolyFaceMeshVertex
 10
-73.20531463623047
 20
722.25
 30
-58.8144645690918
 70
   192
  0
VERTEX
  5
655
330
551
100
AcDbEntity
  8
5LA86-GEH1
100
AcDbVertex
100
AcDbPolyFaceMeshVertex
 10
-60.0531997680664
 20
722.25
 30
-57.72812271118164
 70
   192
  0
VERTEX
  5
656
330
551
100
AcDbEntity
  8
5LA86-GEH1
100
AcDbVertex
100
AcDbPolyFaceMeshVertex
 10
-56.3483657836914
 20
722.25
 30
-63.61063385009765
 70
   192
  0
VERTEX
  5
657
330
551
100
AcDbEntity
  8
5LA86-GEH1
100
AcDbVertex
100
AcDbPolyFaceMeshVertex
 10
-42.15514373779297
 20
722.25
 30
-61.62507629394531
 70
   192
  0
VERTEX
  5
658
330
551
100
AcDbEntity
  8
5LA86-GEH1
100
AcDbVertex
100
AcDbPolyFaceMeshVertex
 10
-38.26643371582031
 20
722.25
 30
-67.12887573242188
 70
   192
  0
VERTEX
  5
659
330
551
100
AcDbEntity
  8
5LA86-GEH1
100
AcDbVertex
100
AcDbPolyFaceMeshVertex
 10
-22.83408737182617
 20
722.25
 30
-64.16814422607422
 70
   192
  0
VERTEX
  5
65A
330
551
100
AcDbEntity
  8
5LA86-GEH1
100
AcDbVertex
100
AcDbPolyFaceMeshVertex
 10
-0.4151201248168946
 20
722.25
 30
-69.9991455078125
 70
   192
  0
VERTEX
  5
65B
330
551
100
AcDbEntity
  8
5LA86-GEH1
100
AcDbVertex
100
AcDbPolyFaceMeshVertex
 10
-2.708655834197998
 20
722.25
 30
-65.18172454833984
 70
   192
  0
VERTEX
  5
65C
330
551
100
AcDbEntity
  8
5LA86-GEH1
100
AcDbVertex
100
AcDbPolyFaceMeshVertex
 10
17.51381301879883
 20
722.25
 30
-64.59326934814453
 70
   192
  0
VERTEX
  5
65D
330
551
100
AcDbEntity
  8
5LA86-GEH1
100
AcDbVertex
100
AcDbPolyFaceMeshVertex
 10
37.5172233581543
 20
722.25
 30
-67.24262237548828
 70
   192
  0
VERTEX
  5
65E
330
551
100
AcDbEntity
  8
5LA86-GEH1
100
AcDbVertex
100
AcDbPolyFaceMeshVertex
 10
37.11494445800781
 20
722.25
 30
-62.44505310058594
 70
   192
  0
VERTEX
  5
65F
330
551
100
AcDbEntity
  8
5LA86-GEH1
100
AcDbVertex
100
AcDbPolyFaceMeshVertex
 10
55.44571685791016
 20
722.25
 30
-58.88732528686523
 70
   192
  0
VERTEX
  5
660
330
551
100
AcDbEntity
  8
5LA86-GEH1
100
AcDbVertex
100
AcDbPolyFaceMeshVertex
 10
55.74412536621093
 20
722.25
 30
-63.75363159179688
 70
   192
  0
VERTEX
  5
661
330
551
100
AcDbEntity
  8
5LA86-GEH1
100
AcDbVertex
100
AcDbPolyFaceMeshVertex
 10
71.99124145507813
 20
722.25
 30
-54.15487670898437
 70
   192
  0
VERTEX
  5
662
330
551
100
AcDbEntity
  8
5LA86-GEH1
100
AcDbVertex
100
AcDbPolyFaceMeshVertex
 10
72.78543090820313
 20
722.25
 30
-58.95448684692382
 70
   192
  0
VERTEX
  5
663
330
551
100
AcDbEntity
  8
5LA86-GEH1
100
AcDbVertex
100
AcDbPolyFaceMeshVertex
 10
86.4078140258789
 20
722.25
 30
-48.5338134765625
 70
   192
  0
VERTEX
  5
664
330
551
100
AcDbEntity
  8
5LA86-GEH1
100
AcDbVertex
100
AcDbPolyFaceMeshVertex
 10
88.31610870361329
 20
722.25
 30
-52.94281387329101
 70
   192
  0
VERTEX
  5
665
330
551
100
AcDbEntity
  8
5LA86-GEH1
100
AcDbVertex
100
AcDbPolyFaceMeshVertex
 10
98.52985382080078
 20
722.25
 30
-42.32668304443359
 70
   192
  0
VERTEX
  5
666
330
551
100
AcDbEntity
  8
5LA86-GEH1
100
AcDbVertex
100
AcDbPolyFaceMeshVertex
 10
102.0631561279297
 20
722.25
 30
-45.81844329833984
 70
   192
  0
VERTEX
  5
667
330
551
100
AcDbEntity
  8
5LA86-GEH1
100
AcDbVertex
100
AcDbPolyFaceMeshVertex
 10
108.3521270751953
 20
722.25
 30
-35.82232666015625
 70
   192
  0
VERTEX
  5
668
330
551
100
AcDbEntity
  8
5LA86-GEH1
100
AcDbVertex
100
AcDbPolyFaceMeshVertex
 10
113.6622619628906
 20
722.25
 30
-37.77081680297852
 70
   192
  0
VERTEX
  5
669
330
551
100
AcDbEntity
  8
5LA86-GEH1
100
AcDbVertex
100
AcDbPolyFaceMeshVertex
 10
115.9973983764648
 20
722.25
 30
-29.27366447448731
 70
   192
  0
VERTEX
  5
66A
330
551
100
AcDbEntity
  8
5LA86-GEH1
100
AcDbVertex
100
AcDbPolyFaceMeshVertex
 10
122.9268035888672
 20
722.25
 30
-28.93493461608887
 70
   192
  0
VERTEX
  5
66B
330
551
100
AcDbEntity
  8
5LA86-GEH1
100
AcDbVertex
100
AcDbPolyFaceMeshVertex
 10
-127.7844543457031
 20
-0.0000030456333207
 30
-22.57868957519531
 70
   192
  0
VERTEX
  5
66C
330
551
100
AcDbEntity
  8
5LA86-GEH1
100
AcDbVertex
100
AcDbPolyFaceMeshVertex
 10
-127.7844543457031
 20
778.5
 30
-22.57858085632324
 70
   192
  0
VERTEX
  5
66D
330
551
100
AcDbEntity
  8
5LA86-GEH1
100
AcDbVertex
100
AcDbPolyFaceMeshVertex
 10
-122.9267883300781
 20
722.25
 30
-28.93492698669433
 70
   192
  0
VERTEX
  5
66E
330
551
100
AcDbEntity
  8
5LA86-GEH1
100
AcDbVertex
100
AcDbPolyFaceMeshVertex
 10
-115.8795623779297
 20
778.5
 30
-35.91267395019531
 70
   192
  0
VERTEX
  5
66F
330
551
100
AcDbEntity
  8
5LA86-GEH1
100
AcDbVertex
100
AcDbPolyFaceMeshVertex
 10
-113.7184295654297
 20
722.25
 30
-37.72409439086914
 70
   192
  0
VERTEX
  5
670
330
551
100
AcDbEntity
  8
5LA86-GEH1
100
AcDbVertex
100
AcDbPolyFaceMeshVertex
 10
-101.4171600341797
 20
778.5
 30
-46.20231628417968
 70
   192
  0
VERTEX
  5
671
330
551
100
AcDbEntity
  8
5LA86-GEH1
100
AcDbVertex
100
AcDbPolyFaceMeshVertex
 10
-102.1895217895508
 20
722.25
 30
-45.74223327636718
 70
   192
  0
VERTEX
  5
672
330
551
100
AcDbEntity
  8
5LA86-GEH1
100
AcDbVertex
100
AcDbPolyFaceMeshVertex
 10
-88.56880187988281
 20
722.25
 30
-52.82915496826172
 70
   192
  0
VERTEX
  5
673
330
551
100
AcDbEntity
  8
5LA86-GEH1
100
AcDbVertex
100
AcDbPolyFaceMeshVertex
 10
-85.6658935546875
 20
778.5
 30
-54.10104370117188
 70
   192
  0
VERTEX
  5
674
330
551
100
AcDbEntity
  8
5LA86-GEH1
100
AcDbVertex
100
AcDbPolyFaceMeshVertex
 10
-73.20531463623047
 20
722.25
 30
-58.8144645690918
 70
   192
  0
VERTEX
  5
675
330
551
100
AcDbEntity
  8
5LA86-GEH1
100
AcDbVertex
100
AcDbPolyFaceMeshVertex
 10
-69.1544189453125
 20
778.5
 30
-60.11914443969726
 70
   192
  0
VERTEX
  5
676
330
551
100
AcDbEntity
  8
5LA86-GEH1
100
AcDbVertex
100
AcDbPolyFaceMeshVertex
 10
-56.3483657836914
 20
722.25
 30
-63.61063385009765
 70
   192
  0
VERTEX
  5
677
330
551
100
AcDbEntity
  8
5LA86-GEH1
100
AcDbVertex
100
AcDbPolyFaceMeshVertex
 10
-34.92623901367188
 20
778.5
 30
-67.61669158935546
 70
   192
  0
VERTEX
  5
678
330
551
100
AcDbEntity
  8
5LA86-GEH1
100
AcDbVertex
100
AcDbPolyFaceMeshVertex
 10
-38.26643371582031
 20
722.25
 30
-67.12887573242188
 70
   192
  0
VERTEX
  5
679
330
551
100
AcDbEntity
  8
5LA86-GEH1
100
AcDbVertex
100
AcDbPolyFaceMeshVertex
 10
-0.4151201248168946
 20
722.25
 30
-69.9991455078125
 70
   192
  0
VERTEX
  5
67A
330
551
100
AcDbEntity
  8
5LA86-GEH1
100
AcDbVertex
100
AcDbPolyFaceMeshVertex
 10
-0.0112333297729492
 20
778.5
 30
-70.00013732910156
 70
   192
  0
VERTEX
  5
67B
330
551
100
AcDbEntity
  8
5LA86-GEH1
100
AcDbVertex
100
AcDbPolyFaceMeshVertex
 10
34.90267562866211
 20
778.5
 30
-67.620849609375
 70
   192
  0
VERTEX
  5
67C
330
551
100
AcDbEntity
  8
5LA86-GEH1
100
AcDbVertex
100
AcDbPolyFaceMeshVertex
 10
69.13434600830078
 20
778.5
 30
-60.12616729736328
 70
   192
  0
VERTEX
  5
67D
330
551
100
AcDbEntity
  8
5LA86-GEH1
100
AcDbVertex
100
AcDbPolyFaceMeshVertex
 10
55.74412536621093
 20
722.25
 30
-63.75363159179688
 70
   192
  0
VERTEX
  5
67E
330
551
100
AcDbEntity
  8
5LA86-GEH1
100
AcDbVertex
100
AcDbPolyFaceMeshVertex
 10
37.5172233581543
 20
722.25
 30
-67.24262237548828
 70
   192
  0
VERTEX
  5
67F
330
551
100
AcDbEntity
  8
5LA86-GEH1
100
AcDbVertex
100
AcDbPolyFaceMeshVertex
 10
72.78543090820313
 20
722.25
 30
-58.95448684692382
 70
   192
  0
VERTEX
  5
680
330
551
100
AcDbEntity
  8
5LA86-GEH1
100
AcDbVertex
100
AcDbPolyFaceMeshVertex
 10
85.63961029052734
 20
778.5
 30
-54.11336517333984
 70
   192
  0
VERTEX
  5
681
330
551
100
AcDbEntity
  8
5LA86-GEH1
100
AcDbVertex
100
AcDbPolyFaceMeshVertex
 10
88.31610870361329
 20
722.25
 30
-52.94281387329101
 70
   192
  0
VERTEX
  5
682
330
551
100
AcDbEntity
  8
5LA86-GEH1
100
AcDbVertex
100
AcDbPolyFaceMeshVertex
 10
101.405044555664
 20
778.5
 30
-46.20922470092773
 70
   192
  0
VERTEX
  5
683
330
551
100
AcDbEntity
  8
5LA86-GEH1
100
AcDbVertex
100
AcDbPolyFaceMeshVertex
 10
102.0631561279297
 20
722.25
 30
-45.81844329833984
 70
   192
  0
VERTEX
  5
684
330
551
100
AcDbEntity
  8
5LA86-GEH1
100
AcDbVertex
100
AcDbPolyFaceMeshVertex
 10
113.6622619628906
 20
722.25
 30
-37.77081680297852
 70
   192
  0
VERTEX
  5
685
330
551
100
AcDbEntity
  8
5LA86-GEH1
100
AcDbVertex
100
AcDbPolyFaceMeshVertex
 10
115.8499145507812
 20
778.5
 30
-35.93812561035156
 70
   192
  0
VERTEX
  5
686
330
551
100
AcDbEntity
  8
5LA86-GEH1
100
AcDbVertex
100
AcDbPolyFaceMeshVertex
 10
122.9268035888672
 20
722.25
 30
-28.93493461608887
 70
   192
  0
VERTEX
  5
687
330
551
100
AcDbEntity
  8
5LA86-GEH1
100
AcDbVertex
100
AcDbPolyFaceMeshVertex
 10
127.7844619750976
 20
778.5
 30
-22.57858467102051
 70
   192
  0
VERTEX
  5
688
330
551
100
AcDbEntity
  8
5LA86-GEH1
100
AcDbVertex
100
AcDbPolyFaceMeshVertex
 10
127.7844619750976
 20
-0.000003530087497
 30
-22.57869338989258
 70
   192
  0
VERTEX
  5
689
330
551
100
AcDbEntity
  8
5LA86-GEH1
100
AcDbVertex
100
AcDbPolyFaceMeshVertex
 10
127.7844619750976
 20
-778.5
 30
-22.57880210876465
 70
   192
  0
VERTEX
  5
68A
330
551
100
AcDbEntity
  8
5LA86-GEH1
100
AcDbVertex
100
AcDbPolyFaceMeshVertex
 10
122.9267959594726
 20
-722.25
 30
-28.93513679504394
 70
   192
  0
VERTEX
  5
68B
330
551
100
AcDbEntity
  8
5LA86-GEH1
100
AcDbVertex
100
AcDbPolyFaceMeshVertex
 10
122.9267959594726
 20
-0.000002639470722
 30
-28.93503570556641
 70
   192
  0
VERTEX
  5
68C
330
551
100
AcDbEntity
  8
5LA86-GEH1
100
AcDbVertex
100
AcDbPolyFaceMeshVertex
 10
115.8776702880859
 20
-778.5
 30
-35.9145622253418
 70
   192
  0
VERTEX
  5
68D
330
551
100
AcDbEntity
  8
5LA86-GEH1
100
AcDbVertex
100
AcDbPolyFaceMeshVertex
 10
113.7174301147461
 20
-722.25
 30
-37.72510528564453
 70
   192
  0
VERTEX
  5
68E
330
551
100
AcDbEntity
  8
5LA86-GEH1
100
AcDbVertex
100
AcDbPolyFaceMeshVertex
 10
101.4146575927734
 20
-778.5
 30
-46.20510482788086
 70
   192
  0
VERTEX
  5
68F
330
551
100
AcDbEntity
  8
5LA86-GEH1
100
AcDbVertex
100
AcDbPolyFaceMeshVertex
 10
102.1869277954101
 20
-722.25
 30
-45.74399566650391
 70
   192
  0
VERTEX
  5
690
330
551
100
AcDbEntity
  8
5LA86-GEH1
100
AcDbVertex
100
AcDbPolyFaceMeshVertex
 10
88.56440734863282
 20
-722.25
 30
-52.83132553100585
 70
   192
  0
VERTEX
  5
691
330
551
100
AcDbEntity
  8
5LA86-GEH1
100
AcDbVertex
100
AcDbPolyFaceMeshVertex
 10
85.65940093994141
 20
-778.5
 30
-54.10390472412109
 70
   192
  0
VERTEX
  5
692
330
551
100
AcDbEntity
  8
5LA86-GEH1
100
AcDbVertex
100
AcDbPolyFaceMeshVertex
 10
73.19874572753906
 20
-722.25
 30
-58.8168716430664
 70
   192
  0
VERTEX
  5
693
330
551
100
AcDbEntity
  8
5LA86-GEH1
100
AcDbVertex
100
AcDbPolyFaceMeshVertex
 10
69.14916229248047
 20
-778.5
 30
-60.12014389038085
 70
   192
  0
VERTEX
  5
694
330
551
100
AcDbEntity
  8
5LA86-GEH1
100
AcDbVertex
100
AcDbPolyFaceMeshVertex
 10
56.33914947509765
 20
-722.25
 30
-63.61304473876953
 70
   192
  0
VERTEX
  5
695
330
551
100
AcDbEntity
  8
5LA86-GEH1
100
AcDbVertex
100
AcDbPolyFaceMeshVertex
 10
34.91674041748047
 20
-778.5
 30
-67.61845397949219
 70
   192
  0
VERTEX
  5
696
330
551
100
AcDbEntity
  8
5LA86-GEH1
100
AcDbVertex
100
AcDbPolyFaceMeshVertex
 10
38.25468444824219
 20
-722.25
 30
-67.13087463378906
 70
   192
  0
VERTEX
  5
697
330
551
100
AcDbEntity
  8
5LA86-GEH1
100
AcDbVertex
100
AcDbPolyFaceMeshVertex
 10
0.4016284942626954
 20
-722.25
 30
-69.99935150146484
 70
   192
  0
VERTEX
  5
698
330
551
100
AcDbEntity
  8
5LA86-GEH1
100
AcDbVertex
100
AcDbPolyFaceMeshVertex
 10
-0.0000000000000113
 20
-778.5
 30
-70.00010681152343
 70
   192
  0
VERTEX
  5
699
330
551
100
AcDbEntity
  8
5LA86-GEH1
100
AcDbVertex
100
AcDbPolyFaceMeshVertex
 10
-34.91674423217773
 20
-778.5
 30
-67.61845397949219
 70
   192
  0
VERTEX
  5
69A
330
551
100
AcDbEntity
  8
5LA86-GEH1
100
AcDbVertex
100
AcDbPolyFaceMeshVertex
 10
-69.14926147460938
 20
-778.5
 30
-60.12150573730469
 70
   192
  0
VERTEX
  5
69B
330
551
100
AcDbEntity
  8
5LA86-GEH1
100
AcDbVertex
100
AcDbPolyFaceMeshVertex
 10
-55.75431060791015
 20
-722.25
 30
-63.7514419555664
 70
   192
  0
VERTEX
  5
69C
330
551
100
AcDbEntity
  8
5LA86-GEH1
100
AcDbVertex
100
AcDbPolyFaceMeshVertex
 10
-37.52970123291016
 20
-722.25
 30
-67.24095153808594
 70
   192
  0
VERTEX
  5
69D
330
551
100
AcDbEntity
  8
5LA86-GEH1
100
AcDbVertex
100
AcDbPolyFaceMeshVertex
 10
-72.79255676269531
 20
-722.25
 30
-58.95231628417969
 70
   192
  0
VERTEX
  5
69E
330
551
100
AcDbEntity
  8
5LA86-GEH1
100
AcDbVertex
100
AcDbPolyFaceMeshVertex
 10
-85.65939331054687
 20
-778.5
 30
-54.10390090942382
 70
   192
  0
VERTEX
  5
69F
330
551
100
AcDbEntity
  8
5LA86-GEH1
100
AcDbVertex
100
AcDbPolyFaceMeshVertex
 10
-88.32073974609375
 20
-722.25
 30
-52.94092559814453
 70
   192
  0
VERTEX
  5
6A0
330
551
100
AcDbEntity
  8
5LA86-GEH1
100
AcDbVertex
100
AcDbPolyFaceMeshVertex
 10
-101.4146575927734
 20
-778.5
 30
-46.20510864257812
 70
   192
  0
VERTEX
  5
6A1
330
551
100
AcDbEntity
  8
5LA86-GEH1
100
AcDbVertex
100
AcDbPolyFaceMeshVertex
 10
-102.0656585693359
 20
-722.25
 30
-45.8171501159668
 70
   192
  0
VERTEX
  5
6A2
330
551
100
AcDbEntity
  8
5LA86-GEH1
100
AcDbVertex
100
AcDbPolyFaceMeshVertex
 10
-113.6631622314453
 20
-722.25
 30
-37.77029418945313
 70
   192
  0
VERTEX
  5
6A3
330
551
100
AcDbEntity
  8
5LA86-GEH1
100
AcDbVertex
100
AcDbPolyFaceMeshVertex
 10
-115.8776550292968
 20
-778.5
 30
-35.9145622253418
 70
   192
  0
VERTEX
  5
6A4
330
551
100
AcDbEntity
  8
5LA86-GEH1
100
AcDbVertex
100
AcDbPolyFaceMeshVertex
 10
-122.9267883300781
 20
-722.25
 30
-28.93512916564942
 70
   192
  0
VERTEX
  5
6A5
330
551
100
AcDbEntity
  8
5LA86-GEH1
100
AcDbVertex
100
AcDbPolyFaceMeshVertex
 10
-127.7844543457031
 20
-778.5
 30
-22.57879829406738
 70
   192
  0
VERTEX
  5
6A6
330
551
100
AcDbEntity
  8
5LA86-GEH1
100
AcDbVertex
100
AcDbPolyFaceMeshVertex
 10
-122.9267883300781
 20
-0.0000021734347229
 30
-28.93502807617188
 70
   192
  0
VERTEX
  5
6A7
330
551
100
AcDbEntity
  8
5LA86-GEH1
100
AcDbVertex
100
AcDbPolyFaceMeshVertex
 10
-127.7844543457031
 20
778.5
 30
-22.57858085632324
 70
   192
  0
VERTEX
  5
6A8
330
551
100
AcDbEntity
  8
5LA86-GEH1
100
AcDbVertex
100
AcDbPolyFaceMeshVertex
 10
-127.7844543457031
 20
-0.0000030456333207
 30
-22.57868957519531
 70
   192
  0
VERTEX
  5
6A9
330
551
100
AcDbEntity
  8
5LA86-GEH1
100
AcDbVertex
100
AcDbPolyFaceMeshVertex
 10
-128.10546875
 20
778.7392578124999
 30
-21.65447807312012
 70
   192
  0
VERTEX
  5
6AA
330
551
100
AcDbEntity
  8
5LA86-GEH1
100
AcDbVertex
100
AcDbPolyFaceMeshVertex
 10
-128.10546875
 20
-778.5
 30
-21.65469551086426
 70
   192
  0
VERTEX
  5
6AB
330
551
100
AcDbEntity
  8
5LA86-GEH1
100
AcDbVertex
100
AcDbPolyFaceMeshVertex
 10
-127.9449615478515
 20
-778.61962890625
 30
-22.11674690246582
 70
   192
  0
VERTEX
  5
6AC
330
551
100
AcDbEntity
  8
5LA86-GEH1
100
AcDbVertex
100
AcDbPolyFaceMeshVertex
 10
-127.7844543457031
 20
-778.5
 30
-22.57879829406738
 70
   192
  0
VERTEX
  5
6AD
330
551
100
AcDbEntity
  8
5LA86-GEH1
100
AcDbFaceRecord
 10
0.0
 20
0.0
 30
0.0
 70
   128
 71
     1
 72
     2
 73
     3
  0
VERTEX
  5
6AE
330
551
100
AcDbEntity
  8
5LA86-GEH1
100
AcDbFaceRecord
 10
0.0
 20
0.0
 30
0.0
 70
   128
 71
     3
 72
     2
 73
     4
  0
VERTEX
  5
6AF
330
551
100
AcDbEntity
  8
5LA86-GEH1
100
AcDbFaceRecord
 10
0.0
 20
0.0
 30
0.0
 70
   128
 71
     3
 72
     4
 73
     5
  0
VERTEX
  5
6B0
330
551
100
AcDbEntity
  8
5LA86-GEH1
100
AcDbFaceRecord
 10
0.0
 20
0.0
 30
0.0
 70
   128
 71
     3
 72
     5
 73
     6
  0
VERTEX
  5
6B1
330
551
100
AcDbEntity
  8
5LA86-GEH1
100
AcDbFaceRecord
 10
0.0
 20
0.0
 30
0.0
 70
   128
 71
     6
 72
     5
 73
     7
  0
VERTEX
  5
6B2
330
551
100
AcDbEntity
  8
5LA86-GEH1
100
AcDbFaceRecord
 10
0.0
 20
0.0
 30
0.0
 70
   128
 71
     6
 72
     7
 73
     8
  0
VERTEX
  5
6B3
330
551
100
AcDbEntity
  8
5LA86-GEH1
100
AcDbFaceRecord
 10
0.0
 20
0.0
 30
0.0
 70
   128
 71
     8
 72
     7
 73
     9
  0
VERTEX
  5
6B4
330
551
100
AcDbEntity
  8
5LA86-GEH1
100
AcDbFaceRecord
 10
0.0
 20
0.0
 30
0.0
 70
   128
 71
     8
 72
     9
 73
    10
  0
VERTEX
  5
6B5
330
551
100
AcDbEntity
  8
5LA86-GEH1
100
AcDbFaceRecord
 10
0.0
 20
0.0
 30
0.0
 70
   128
 71
    10
 72
     9
 73
    11
  0
VERTEX
  5
6B6
330
551
100
AcDbEntity
  8
5LA86-GEH1
100
AcDbFaceRecord
 10
0.0
 20
0.0
 30
0.0
 70
   128
 71
    10
 72
    11
 73
    12
  0
VERTEX
  5
6B7
330
551
100
AcDbEntity
  8
5LA86-GEH1
100
AcDbFaceRecord
 10
0.0
 20
0.0
 30
0.0
 70
   128
 71
    12
 72
    11
 73
    13
  0
VERTEX
  5
6B8
330
551
100
AcDbEntity
  8
5LA86-GEH1
100
AcDbFaceRecord
 10
0.0
 20
0.0
 30
0.0
 70
   128
 71
    12
 72
    13
 73
    14
  0
VERTEX
  5
6B9
330
551
100
AcDbEntity
  8
5LA86-GEH1
100
AcDbFaceRecord
 10
0.0
 20
0.0
 30
0.0
 70
   128
 71
    14
 72
    13
 73
    15
  0
VERTEX
  5
6BA
330
551
100
AcDbEntity
  8
5LA86-GEH1
100
AcDbFaceRecord
 10
0.0
 20
0.0
 30
0.0
 70
   128
 71
    14
 72
    15
 73
    16
  0
VERTEX
  5
6BB
330
551
100
AcDbEntity
  8
5LA86-GEH1
100
AcDbFaceRecord
 10
0.0
 20
0.0
 30
0.0
 70
   128
 71
    16
 72
    15
 73
    17
  0
VERTEX
  5
6BC
330
551
100
AcDbEntity
  8
5LA86-GEH1
100
AcDbFaceRecord
 10
0.0
 20
0.0
 30
0.0
 70
   128
 71
    16
 72
    17
 73
    18
  0
VERTEX
  5
6BD
330
551
100
AcDbEntity
  8
5LA86-GEH1
100
AcDbFaceRecord
 10
0.0
 20
0.0
 30
0.0
 70
   128
 71
    18
 72
    17
 73
    19
  0
VERTEX
  5
6BE
330
551
100
AcDbEntity
  8
5LA86-GEH1
100
AcDbFaceRecord
 10
0.0
 20
0.0
 30
0.0
 70
   128
 71
    19
 72
    17
 73
    20
  0
VERTEX
  5
6BF
330
551
100
AcDbEntity
  8
5LA86-GEH1
100
AcDbFaceRecord
 10
0.0
 20
0.0
 30
0.0
 70
   128
 71
    19
 72
    20
 73
    21
  0
VERTEX
  5
6C0
330
551
100
AcDbEntity
  8
5LA86-GEH1
100
AcDbFaceRecord
 10
0.0
 20
0.0
 30
0.0
 70
   128
 71
    15
 72
    22
 73
    17
  0
VERTEX
  5
6C1
330
551
100
AcDbEntity
  8
5LA86-GEH1
100
AcDbFaceRecord
 10
0.0
 20
0.0
 30
0.0
 70
   128
 71
    17
 72
    22
 73
    20
  0
VERTEX
  5
6C2
330
551
100
AcDbEntity
  8
5LA86-GEH1
100
AcDbFaceRecord
 10
0.0
 20
0.0
 30
0.0
 70
   128
 71
    22
 72
    23
 73
    20
  0
VERTEX
  5
6C3
330
551
100
AcDbEntity
  8
5LA86-GEH1
100
AcDbFaceRecord
 10
0.0
 20
0.0
 30
0.0
 70
   128
 71
    20
 72
    23
 73
    24
  0
VERTEX
  5
6C4
330
551
100
AcDbEntity
  8
5LA86-GEH1
100
AcDbFaceRecord
 10
0.0
 20
0.0
 30
0.0
 70
   128
 71
    23
 72
    25
 73
    26
  0
VERTEX
  5
6C5
330
551
100
AcDbEntity
  8
5LA86-GEH1
100
AcDbFaceRecord
 10
0.0
 20
0.0
 30
0.0
 70
   128
 71
    27
 72
    28
 73
    29
  0
VERTEX
  5
6C6
330
551
100
AcDbEntity
  8
5LA86-GEH1
100
AcDbFaceRecord
 10
0.0
 20
0.0
 30
0.0
 70
   128
 71
    29
 72
    28
 73
    30
  0
VERTEX
  5
6C7
330
551
100
AcDbEntity
  8
5LA86-GEH1
100
AcDbFaceRecord
 10
0.0
 20
0.0
 30
0.0
 70
   128
 71
    29
 72
    30
 73
    31
  0
VERTEX
  5
6C8
330
551
100
AcDbEntity
  8
5LA86-GEH1
100
AcDbFaceRecord
 10
0.0
 20
0.0
 30
0.0
 70
   128
 71
    31
 72
    30
 73
    32
  0
VERTEX
  5
6C9
330
551
100
AcDbEntity
  8
5LA86-GEH1
100
AcDbFaceRecord
 10
0.0
 20
0.0
 30
0.0
 70
   128
 71
    31
 72
    32
 73
    33
  0
VERTEX
  5
6CA
330
551
100
AcDbEntity
  8
5LA86-GEH1
100
AcDbFaceRecord
 10
0.0
 20
0.0
 30
0.0
 70
   128
 71
    33
 72
    32
 73
    34
  0
VERTEX
  5
6CB
330
551
100
AcDbEntity
  8
5LA86-GEH1
100
AcDbFaceRecord
 10
0.0
 20
0.0
 30
0.0
 70
   128
 71
    33
 72
    35
 73
    31
  0
VERTEX
  5
6CC
330
551
100
AcDbEntity
  8
5LA86-GEH1
100
AcDbFaceRecord
 10
0.0
 20
0.0
 30
0.0
 70
   128
 71
    31
 72
    35
 73
    36
  0
VERTEX
  5
6CD
330
551
100
AcDbEntity
  8
5LA86-GEH1
100
AcDbFaceRecord
 10
0.0
 20
0.0
 30
0.0
 70
   128
 71
    29
 72
    37
 73
    38
  0
VERTEX
  5
6CE
330
551
100
AcDbEntity
  8
5LA86-GEH1
100
AcDbFaceRecord
 10
0.0
 20
0.0
 30
0.0
 70
   128
 71
    39
 72
    37
 73
    21
  0
VERTEX
  5
6CF
330
551
100
AcDbEntity
  8
5LA86-GEH1
100
AcDbFaceRecord
 10
0.0
 20
0.0
 30
0.0
 70
   128
 71
    18
 72
   -40
 73
    16
  0
VERTEX
  5
6D0
330
551
100
AcDbEntity
  8
5LA86-GEH1
100
AcDbFaceRecord
 10
0.0
 20
0.0
 30
0.0
 70
   128
 71
   -16
 72
    40
 73
    14
  0
VERTEX
  5
6D1
330
551
100
AcDbEntity
  8
5LA86-GEH1
100
AcDbFaceRecord
 10
0.0
 20
0.0
 30
0.0
 70
   128
 71
    14
 72
    40
 73
    12
  0
VERTEX
  5
6D2
330
551
100
AcDbEntity
  8
5LA86-GEH1
100
AcDbFaceRecord
 10
0.0
 20
0.0
 30
0.0
 70
   128
 71
    12
 72
    40
 73
    41
  0
VERTEX
  5
6D3
330
551
100
AcDbEntity
  8
5LA86-GEH1
100
AcDbFaceRecord
 10
0.0
 20
0.0
 30
0.0
 70
   128
 71
    12
 72
    41
 73
    10
  0
VERTEX
  5
6D4
330
551
100
AcDbEntity
  8
5LA86-GEH1
100
AcDbFaceRecord
 10
0.0
 20
0.0
 30
0.0
 70
   128
 71
    10
 72
    41
 73
    42
  0
VERTEX
  5
6D5
330
551
100
AcDbEntity
  8
5LA86-GEH1
100
AcDbFaceRecord
 10
0.0
 20
0.0
 30
0.0
 70
   128
 71
    10
 72
    42
 73
     8
  0
VERTEX
  5
6D6
330
551
100
AcDbEntity
  8
5LA86-GEH1
100
AcDbFaceRecord
 10
0.0
 20
0.0
 30
0.0
 70
   128
 71
     8
 72
    42
 73
    43
  0
VERTEX
  5
6D7
330
551
100
AcDbEntity
  8
5LA86-GEH1
100
AcDbFaceRecord
 10
0.0
 20
0.0
 30
0.0
 70
   128
 71
     8
 72
    43
 73
     6
  0
VERTEX
  5
6D8
330
551
100
AcDbEntity
  8
5LA86-GEH1
100
AcDbFaceRecord
 10
0.0
 20
0.0
 30
0.0
 70
   128
 71
     6
 72
    43
 73
    44
  0
VERTEX
  5
6D9
330
551
100
AcDbEntity
  8
5LA86-GEH1
100
AcDbFaceRecord
 10
0.0
 20
0.0
 30
0.0
 70
   128
 71
     6
 72
    44
 73
     3
  0
VERTEX
  5
6DA
330
551
100
AcDbEntity
  8
5LA86-GEH1
100
AcDbFaceRecord
 10
0.0
 20
0.0
 30
0.0
 70
   128
 71
     3
 72
    44
 73
     1
  0
VERTEX
  5
6DB
330
551
100
AcDbEntity
  8
5LA86-GEH1
100
AcDbFaceRecord
 10
0.0
 20
0.0
 30
0.0
 70
   128
 71
    45
 72
   -46
 73
    47
  0
VERTEX
  5
6DC
330
551
100
AcDbEntity
  8
5LA86-GEH1
100
AcDbFaceRecord
 10
0.0
 20
0.0
 30
0.0
 70
   128
 71
   -47
 72
    46
 73
   -48
  0
VERTEX
  5
6DD
330
551
100
AcDbEntity
  8
5LA86-GEH1
100
AcDbFaceRecord
 10
0.0
 20
0.0
 30
0.0
 70
   128
 71
   -47
 72
    48
 73
    49
  0
VERTEX
  5
6DE
330
551
100
AcDbEntity
  8
5LA86-GEH1
100
AcDbFaceRecord
 10
0.0
 20
0.0
 30
0.0
 70
   128
 71
    50
 72
   -51
 73
    52
  0
VERTEX
  5
6DF
330
551
100
AcDbEntity
  8
5LA86-GEH1
100
AcDbFaceRecord
 10
0.0
 20
0.0
 30
0.0
 70
   128
 71
   -52
 72
    51
 73
   -53
  0
VERTEX
  5
6E0
330
551
100
AcDbEntity
  8
5LA86-GEH1
100
AcDbFaceRecord
 10
0.0
 20
0.0
 30
0.0
 70
   128
 71
   -52
 72
    53
 73
   -54
  0
VERTEX
  5
6E1
330
551
100
AcDbEntity
  8
5LA86-GEH1
100
AcDbFaceRecord
 10
0.0
 20
0.0
 30
0.0
 70
   128
 71
    54
 72
   -55
 73
   -52
  0
VERTEX
  5
6E2
330
551
100
AcDbEntity
  8
5LA86-GEH1
100
AcDbFaceRecord
 10
0.0
 20
0.0
 30
0.0
 70
   128
 71
   -52
 72
    55
 73
   -56
  0
VERTEX
  5
6E3
330
551
100
AcDbEntity
  8
5LA86-GEH1
100
AcDbFaceRecord
 10
0.0
 20
0.0
 30
0.0
 70
   128
 71
   -52
 72
    56
 73
   -57
  0
VERTEX
  5
6E4
330
551
100
AcDbEntity
  8
5LA86-GEH1
100
AcDbFaceRecord
 10
0.0
 20
0.0
 30
0.0
 70
   128
 71
    57
 72
   -58
 73
   -52
  0
VERTEX
  5
6E5
330
551
100
AcDbEntity
  8
5LA86-GEH1
100
AcDbFaceRecord
 10
0.0
 20
0.0
 30
0.0
 70
   128
 71
   -52
 72
    58
 73
   -59
  0
VERTEX
  5
6E6
330
551
100
AcDbEntity
  8
5LA86-GEH1
100
AcDbFaceRecord
 10
0.0
 20
0.0
 30
0.0
 70
   128
 71
   -52
 72
   -59
 73
    60
  0
VERTEX
  5
6E7
330
551
100
AcDbEntity
  8
5LA86-GEH1
100
AcDbFaceRecord
 10
0.0
 20
0.0
 30
0.0
 70
   128
 71
   -60
 72
    59
 73
   -61
  0
VERTEX
  5
6E8
330
551
100
AcDbEntity
  8
5LA86-GEH1
100
AcDbFaceRecord
 10
0.0
 20
0.0
 30
0.0
 70
   128
 71
   -60
 72
    61
 73
   -62
  0
VERTEX
  5
6E9
330
551
100
AcDbEntity
  8
5LA86-GEH1
100
AcDbFaceRecord
 10
0.0
 20
0.0
 30
0.0
 70
   128
 71
    62
 72
   -63
 73
   -60
  0
VERTEX
  5
6EA
330
551
100
AcDbEntity
  8
5LA86-GEH1
100
AcDbFaceRecord
 10
0.0
 20
0.0
 30
0.0
 70
   128
 71
   -60
 72
    63
 73
    64
  0
VERTEX
  5
6EB
330
551
100
AcDbEntity
  8
5LA86-GEH1
100
AcDbFaceRecord
 10
0.0
 20
0.0
 30
0.0
 70
   128
 71
    65
 72
   -66
 73
    67
  0
VERTEX
  5
6EC
330
551
100
AcDbEntity
  8
5LA86-GEH1
100
AcDbFaceRecord
 10
0.0
 20
0.0
 30
0.0
 70
   128
 71
   -67
 72
    66
 73
   -68
  0
VERTEX
  5
6ED
330
551
100
AcDbEntity
  8
5LA86-GEH1
100
AcDbFaceRecord
 10
0.0
 20
0.0
 30
0.0
 70
   128
 71
   -67
 72
    68
 73
    69
  0
VERTEX
  5
6EE
330
551
100
AcDbEntity
  8
5LA86-GEH1
100
AcDbFaceRecord
 10
0.0
 20
0.0
 30
0.0
 70
   128
 71
    70
 72
   -71
 73
    72
  0
VERTEX
  5
6EF
330
551
100
AcDbEntity
  8
5LA86-GEH1
100
AcDbFaceRecord
 10
0.0
 20
0.0
 30
0.0
 70
   128
 71
   -72
 72
    71
 73
   -73
  0
VERTEX
  5
6F0
330
551
100
AcDbEntity
  8
5LA86-GEH1
100
AcDbFaceRecord
 10
0.0
 20
0.0
 30
0.0
 70
   128
 71
   -72
 72
    73
 73
   -74
  0
VERTEX
  5
6F1
330
551
100
AcDbEntity
  8
5LA86-GEH1
100
AcDbFaceRecord
 10
0.0
 20
0.0
 30
0.0
 70
   128
 71
    74
 72
   -75
 73
   -72
  0
VERTEX
  5
6F2
330
551
100
AcDbEntity
  8
5LA86-GEH1
100
AcDbFaceRecord
 10
0.0
 20
0.0
 30
0.0
 70
   128
 71
   -72
 72
    75
 73
    76
  0
VERTEX
  5
6F3
330
551
100
AcDbEntity
  8
5LA86-GEH1
100
AcDbFaceRecord
 10
0.0
 20
0.0
 30
0.0
 70
   128
 71
    77
 72
   -78
 73
    79
  0
VERTEX
  5
6F4
330
551
100
AcDbEntity
  8
5LA86-GEH1
100
AcDbFaceRecord
 10
0.0
 20
0.0
 30
0.0
 70
   128
 71
   -79
 72
    78
 73
    80
  0
VERTEX
  5
6F5
330
551
100
AcDbEntity
  8
5LA86-GEH1
100
AcDbFaceRecord
 10
0.0
 20
0.0
 30
0.0
 70
   128
 71
    81
 72
   -82
 73
    83
  0
VERTEX
  5
6F6
330
551
100
AcDbEntity
  8
5LA86-GEH1
100
AcDbFaceRecord
 10
0.0
 20
0.0
 30
0.0
 70
   128
 71
   -83
 72
    82
 73
   -84
  0
VERTEX
  5
6F7
330
551
100
AcDbEntity
  8
5LA86-GEH1
100
AcDbFaceRecord
 10
0.0
 20
0.0
 30
0.0
 70
   128
 71
   -83
 72
   -84
 73
    85
  0
VERTEX
  5
6F8
330
551
100
AcDbEntity
  8
5LA86-GEH1
100
AcDbFaceRecord
 10
0.0
 20
0.0
 30
0.0
 70
   128
 71
   -85
 72
    84
 73
   -86
  0
VERTEX
  5
6F9
330
551
100
AcDbEntity
  8
5LA86-GEH1
100
AcDbFaceRecord
 10
0.0
 20
0.0
 30
0.0
 70
   128
 71
   -85
 72
    86
 73
    87
  0
VERTEX
  5
6FA
330
551
100
AcDbEntity
  8
5LA86-GEH1
100
AcDbFaceRecord
 10
0.0
 20
0.0
 30
0.0
 70
   128
 71
    88
 72
   -89
 73
    90
  0
VERTEX
  5
6FB
330
551
100
AcDbEntity
  8
5LA86-GEH1
100
AcDbFaceRecord
 10
0.0
 20
0.0
 30
0.0
 70
   128
 71
   -90
 72
    89
 73
   -91
  0
VERTEX
  5
6FC
330
551
100
AcDbEntity
  8
5LA86-GEH1
100
AcDbFaceRecord
 10
0.0
 20
0.0
 30
0.0
 70
   128
 71
   -90
 72
    91
 73
    92
  0
VERTEX
  5
6FD
330
551
100
AcDbEntity
  8
5LA86-GEH1
100
AcDbFaceRecord
 10
0.0
 20
0.0
 30
0.0
 70
   128
 71
    93
 72
   -94
 73
    95
  0
VERTEX
  5
6FE
330
551
100
AcDbEntity
  8
5LA86-GEH1
100
AcDbFaceRecord
 10
0.0
 20
0.0
 30
0.0
 70
   128
 71
   -95
 72
    94
 73
   -96
  0
VERTEX
  5
6FF
330
551
100
AcDbEntity
  8
5LA86-GEH1
100
AcDbFaceRecord
 10
0.0
 20
0.0
 30
0.0
 70
   128
 71
   -95
 72
    96
 73
   -97
  0
VERTEX
  5
700
330
551
100
AcDbEntity
  8
5LA86-GEH1
100
AcDbFaceRecord
 10
0.0
 20
0.0
 30
0.0
 70
   128
 71
    97
 72
   -98
 73
   -95
  0
VERTEX
  5
701
330
551
100
AcDbEntity
  8
5LA86-GEH1
100
AcDbFaceRecord
 10
0.0
 20
0.0
 30
0.0
 70
   128
 71
   -95
 72
   -98
 73
    99
  0
VERTEX
  5
702
330
551
100
AcDbEntity
  8
5LA86-GEH1
100
AcDbFaceRecord
 10
0.0
 20
0.0
 30
0.0
 70
   128
 71
   -99
 72
    98
 73
  -100
  0
VERTEX
  5
703
330
551
100
AcDbEntity
  8
5LA86-GEH1
100
AcDbFaceRecord
 10
0.0
 20
0.0
 30
0.0
 70
   128
 71
   -99
 72
   100
 73
  -101
  0
VERTEX
  5
704
330
551
100
AcDbEntity
  8
5LA86-GEH1
100
AcDbFaceRecord
 10
0.0
 20
0.0
 30
0.0
 70
   128
 71
   101
 72
  -102
 73
   -99
  0
VERTEX
  5
705
330
551
100
AcDbEntity
  8
5LA86-GEH1
100
AcDbFaceRecord
 10
0.0
 20
0.0
 30
0.0
 70
   128
 71
   -99
 72
   102
 73
  -103
  0
VERTEX
  5
706
330
551
100
AcDbEntity
  8
5LA86-GEH1
100
AcDbFaceRecord
 10
0.0
 20
0.0
 30
0.0
 70
   128
 71
   -99
 72
   103
 73
  -104
  0
VERTEX
  5
707
330
551
100
AcDbEntity
  8
5LA86-GEH1
100
AcDbFaceRecord
 10
0.0
 20
0.0
 30
0.0
 70
   128
 71
   104
 72
  -105
 73
   -99
  0
VERTEX
  5
708
330
551
100
AcDbEntity
  8
5LA86-GEH1
100
AcDbFaceRecord
 10
0.0
 20
0.0
 30
0.0
 70
   128
 71
   -99
 72
   105
 73
  -106
  0
VERTEX
  5
709
330
551
100
AcDbEntity
  8
5LA86-GEH1
100
AcDbFaceRecord
 10
0.0
 20
0.0
 30
0.0
 70
   128
 71
   -99
 72
   106
 73
   107
  0
VERTEX
  5
70A
330
551
100
AcDbEntity
  8
5LA86-GEH1
100
AcDbFaceRecord
 10
0.0
 20
0.0
 30
0.0
 70
   128
 71
   108
 72
  -109
 73
   110
  0
VERTEX
  5
70B
330
551
100
AcDbEntity
  8
5LA86-GEH1
100
AcDbFaceRecord
 10
0.0
 20
0.0
 30
0.0
 70
   128
 71
  -110
 72
  -109
 73
   111
  0
VERTEX
  5
70C
330
551
100
AcDbEntity
  8
5LA86-GEH1
100
AcDbFaceRecord
 10
0.0
 20
0.0
 30
0.0
 70
   128
 71
  -111
 72
   109
 73
   112
  0
VERTEX
  5
70D
330
551
100
AcDbEntity
  8
5LA86-GEH1
100
AcDbFaceRecord
 10
0.0
 20
0.0
 30
0.0
 70
   128
 71
   113
 72
   114
 73
   115
  0
VERTEX
  5
70E
330
551
100
AcDbEntity
  8
5LA86-GEH1
100
AcDbFaceRecord
 10
0.0
 20
0.0
 30
0.0
 70
   128
 71
   115
 72
   114
 73
   116
  0
VERTEX
  5
70F
330
551
100
AcDbEntity
  8
5LA86-GEH1
100
AcDbFaceRecord
 10
0.0
 20
0.0
 30
0.0
 70
   128
 71
   115
 72
   116
 73
   117
  0
VERTEX
  5
710
330
551
100
AcDbEntity
  8
5LA86-GEH1
100
AcDbFaceRecord
 10
0.0
 20
0.0
 30
0.0
 70
   128
 71
   117
 72
   118
 73
   115
  0
VERTEX
  5
711
330
551
100
AcDbEntity
  8
5LA86-GEH1
100
AcDbFaceRecord
 10
0.0
 20
0.0
 30
0.0
 70
   128
 71
   115
 72
   118
 73
   119
  0
VERTEX
  5
712
330
551
100
AcDbEntity
  8
5LA86-GEH1
100
AcDbFaceRecord
 10
0.0
 20
0.0
 30
0.0
 70
   128
 71
   115
 72
   119
 73
   113
  0
VERTEX
  5
713
330
551
100
AcDbEntity
  8
5LA86-GEH1
100
AcDbFaceRecord
 10
0.0
 20
0.0
 30
0.0
 70
   128
 71
   113
 72
   119
 73
   120
  0
VERTEX
  5
714
330
551
100
AcDbEntity
  8
5LA86-GEH1
100
AcDbFaceRecord
 10
0.0
 20
0.0
 30
0.0
 70
   128
 71
   120
 72
   119
 73
   121
  0
VERTEX
  5
715
330
551
100
AcDbEntity
  8
5LA86-GEH1
100
AcDbFaceRecord
 10
0.0
 20
0.0
 30
0.0
 70
   128
 71
   120
 72
   121
 73
   122
  0
VERTEX
  5
716
330
551
100
AcDbEntity
  8
5LA86-GEH1
100
AcDbFaceRecord
 10
0.0
 20
0.0
 30
0.0
 70
   128
 71
   122
 72
   121
 73
   123
  0
VERTEX
  5
717
330
551
100
AcDbEntity
  8
5LA86-GEH1
100
AcDbFaceRecord
 10
0.0
 20
0.0
 30
0.0
 70
   128
 71
   123
 72
   121
 73
   124
  0
VERTEX
  5
718
330
551
100
AcDbEntity
  8
5LA86-GEH1
100
AcDbFaceRecord
 10
0.0
 20
0.0
 30
0.0
 70
   128
 71
   123
 72
   124
 73
   125
  0
VERTEX
  5
719
330
551
100
AcDbEntity
  8
5LA86-GEH1
100
AcDbFaceRecord
 10
0.0
 20
0.0
 30
0.0
 70
   128
 71
   126
 72
   127
 73
   128
  0
VERTEX
  5
71A
330
551
100
AcDbEntity
  8
5LA86-GEH1
100
AcDbFaceRecord
 10
0.0
 20
0.0
 30
0.0
 70
   128
 71
   126
 72
   128
 73
   129
  0
VERTEX
  5
71B
330
551
100
AcDbEntity
  8
5LA86-GEH1
100
AcDbFaceRecord
 10
0.0
 20
0.0
 30
0.0
 70
   128
 71
   118
 72
   130
 73
   119
  0
VERTEX
  5
71C
330
551
100
AcDbEntity
  8
5LA86-GEH1
100
AcDbFaceRecord
 10
0.0
 20
0.0
 30
0.0
 70
   128
 71
   119
 72
   130
 73
   121
  0
VERTEX
  5
71D
330
551
100
AcDbEntity
  8
5LA86-GEH1
100
AcDbFaceRecord
 10
0.0
 20
0.0
 30
0.0
 70
   128
 71
   130
 72
   131
 73
   121
  0
VERTEX
  5
71E
330
551
100
AcDbEntity
  8
5LA86-GEH1
100
AcDbFaceRecord
 10
0.0
 20
0.0
 30
0.0
 70
   128
 71
   121
 72
   131
 73
   132
  0
VERTEX
  5
71F
330
551
100
AcDbEntity
  8
5LA86-GEH1
100
AcDbFaceRecord
 10
0.0
 20
0.0
 30
0.0
 70
   128
 71
   121
 72
   132
 73
   124
  0
VERTEX
  5
720
330
551
100
AcDbEntity
  8
5LA86-GEH1
100
AcDbFaceRecord
 10
0.0
 20
0.0
 30
0.0
 70
   128
 71
   124
 72
   132
 73
   128
  0
VERTEX
  5
721
330
551
100
AcDbEntity
  8
5LA86-GEH1
100
AcDbFaceRecord
 10
0.0
 20
0.0
 30
0.0
 70
   128
 71
   124
 72
   128
 73
   133
  0
VERTEX
  5
722
330
551
100
AcDbEntity
  8
5LA86-GEH1
100
AcDbFaceRecord
 10
0.0
 20
0.0
 30
0.0
 70
   128
 71
   126
 72
   129
 73
   134
  0
VERTEX
  5
723
330
551
100
AcDbEntity
  8
5LA86-GEH1
100
AcDbFaceRecord
 10
0.0
 20
0.0
 30
0.0
 70
   128
 71
   134
 72
   129
 73
   135
  0
VERTEX
  5
724
330
551
100
AcDbEntity
  8
5LA86-GEH1
100
AcDbFaceRecord
 10
0.0
 20
0.0
 30
0.0
 70
   128
 71
   134
 72
   135
 73
   136
  0
VERTEX
  5
725
330
551
100
AcDbEntity
  8
5LA86-GEH1
100
AcDbFaceRecord
 10
0.0
 20
0.0
 30
0.0
 70
   128
 71
   136
 72
   135
 73
   137
  0
VERTEX
  5
726
330
551
100
AcDbEntity
  8
5LA86-GEH1
100
AcDbFaceRecord
 10
0.0
 20
0.0
 30
0.0
 70
   128
 71
   136
 72
   137
 73
   138
  0
VERTEX
  5
727
330
551
100
AcDbEntity
  8
5LA86-GEH1
100
AcDbFaceRecord
 10
0.0
 20
0.0
 30
0.0
 70
   128
 71
   138
 72
   137
 73
   139
  0
VERTEX
  5
728
330
551
100
AcDbEntity
  8
5LA86-GEH1
100
AcDbFaceRecord
 10
0.0
 20
0.0
 30
0.0
 70
   128
 71
   138
 72
   139
 73
   140
  0
VERTEX
  5
729
330
551
100
AcDbEntity
  8
5LA86-GEH1
100
AcDbFaceRecord
 10
0.0
 20
0.0
 30
0.0
 70
   128
 71
   140
 72
   139
 73
   141
  0
VERTEX
  5
72A
330
551
100
AcDbEntity
  8
5LA86-GEH1
100
AcDbFaceRecord
 10
0.0
 20
0.0
 30
0.0
 70
   128
 71
   140
 72
   141
 73
   142
  0
VERTEX
  5
72B
330
551
100
AcDbEntity
  8
5LA86-GEH1
100
AcDbFaceRecord
 10
0.0
 20
0.0
 30
0.0
 70
   128
 71
   142
 72
   141
 73
   143
  0
VERTEX
  5
72C
330
551
100
AcDbEntity
  8
5LA86-GEH1
100
AcDbFaceRecord
 10
0.0
 20
0.0
 30
0.0
 70
   128
 71
   142
 72
   143
 73
   144
  0
VERTEX
  5
72D
330
551
100
AcDbEntity
  8
5LA86-GEH1
100
AcDbFaceRecord
 10
0.0
 20
0.0
 30
0.0
 70
   128
 71
   144
 72
   143
 73
   145
  0
VERTEX
  5
72E
330
551
100
AcDbEntity
  8
5LA86-GEH1
100
AcDbFaceRecord
 10
0.0
 20
0.0
 30
0.0
 70
   128
 71
   144
 72
  -145
 73
   146
  0
VERTEX
  5
72F
330
551
100
AcDbEntity
  8
5LA86-GEH1
100
AcDbFaceRecord
 10
0.0
 20
0.0
 30
0.0
 70
   128
 71
  -146
 72
   145
 73
   147
  0
VERTEX
  5
730
330
551
100
AcDbEntity
  8
5LA86-GEH1
100
AcDbFaceRecord
 10
0.0
 20
0.0
 30
0.0
 70
   128
 71
   146
 72
   148
 73
   144
  0
VERTEX
  5
731
330
551
100
AcDbEntity
  8
5LA86-GEH1
100
AcDbFaceRecord
 10
0.0
 20
0.0
 30
0.0
 70
   128
 71
   144
 72
   148
 73
   142
  0
VERTEX
  5
732
330
551
100
AcDbEntity
  8
5LA86-GEH1
100
AcDbFaceRecord
 10
0.0
 20
0.0
 30
0.0
 70
   128
 71
   148
 72
   149
 73
   142
  0
VERTEX
  5
733
330
551
100
AcDbEntity
  8
5LA86-GEH1
100
AcDbFaceRecord
 10
0.0
 20
0.0
 30
0.0
 70
   128
 71
   142
 72
   149
 73
   140
  0
VERTEX
  5
734
330
551
100
AcDbEntity
  8
5LA86-GEH1
100
AcDbFaceRecord
 10
0.0
 20
0.0
 30
0.0
 70
   128
 71
   149
 72
   150
 73
   140
  0
VERTEX
  5
735
330
551
100
AcDbEntity
  8
5LA86-GEH1
100
AcDbFaceRecord
 10
0.0
 20
0.0
 30
0.0
 70
   128
 71
   140
 72
   150
 73
   138
  0
VERTEX
  5
736
330
551
100
AcDbEntity
  8
5LA86-GEH1
100
AcDbFaceRecord
 10
0.0
 20
0.0
 30
0.0
 70
   128
 71
   150
 72
   151
 73
   138
  0
VERTEX
  5
737
330
551
100
AcDbEntity
  8
5LA86-GEH1
100
AcDbFaceRecord
 10
0.0
 20
0.0
 30
0.0
 70
   128
 71
   138
 72
   151
 73
   136
  0
VERTEX
  5
738
330
551
100
AcDbEntity
  8
5LA86-GEH1
100
AcDbFaceRecord
 10
0.0
 20
0.0
 30
0.0
 70
   128
 71
   151
 72
   152
 73
   136
  0
VERTEX
  5
739
330
551
100
AcDbEntity
  8
5LA86-GEH1
100
AcDbFaceRecord
 10
0.0
 20
0.0
 30
0.0
 70
   128
 71
   136
 72
   152
 73
   134
  0
VERTEX
  5
73A
330
551
100
AcDbEntity
  8
5LA86-GEH1
100
AcDbFaceRecord
 10
0.0
 20
0.0
 30
0.0
 70
   128
 71
   152
 72
   153
 73
   134
  0
VERTEX
  5
73B
330
551
100
AcDbEntity
  8
5LA86-GEH1
100
AcDbFaceRecord
 10
0.0
 20
0.0
 30
0.0
 70
   128
 71
   134
 72
   153
 73
   126
  0
VERTEX
  5
73C
330
551
100
AcDbEntity
  8
5LA86-GEH1
100
AcDbFaceRecord
 10
0.0
 20
0.0
 30
0.0
 70
   128
 71
   153
 72
   125
 73
   126
  0
VERTEX
  5
73D
330
551
100
AcDbEntity
  8
5LA86-GEH1
100
AcDbFaceRecord
 10
0.0
 20
0.0
 30
0.0
 70
   128
 71
   154
 72
  -155
 73
   156
  0
VERTEX
  5
73E
330
551
100
AcDbEntity
  8
5LA86-GEH1
100
AcDbFaceRecord
 10
0.0
 20
0.0
 30
0.0
 70
   128
 71
  -156
 72
  -155
 73
   157
  0
VERTEX
  5
73F
330
551
100
AcDbEntity
  8
5LA86-GEH1
100
AcDbFaceRecord
 10
0.0
 20
0.0
 30
0.0
 70
   128
 71
  -157
 72
   155
 73
  -158
  0
VERTEX
  5
740
330
551
100
AcDbEntity
  8
5LA86-GEH1
100
AcDbFaceRecord
 10
0.0
 20
0.0
 30
0.0
 70
   128
 71
  -157
 72
  -158
 73
   159
  0
VERTEX
  5
741
330
551
100
AcDbEntity
  8
5LA86-GEH1
100
AcDbFaceRecord
 10
0.0
 20
0.0
 30
0.0
 70
   128
 71
  -159
 72
   158
 73
  -160
  0
VERTEX
  5
742
330
551
100
AcDbEntity
  8
5LA86-GEH1
100
AcDbFaceRecord
 10
0.0
 20
0.0
 30
0.0
 70
   128
 71
  -159
 72
  -160
 73
   161
  0
VERTEX
  5
743
330
551
100
AcDbEntity
  8
5LA86-GEH1
100
AcDbFaceRecord
 10
0.0
 20
0.0
 30
0.0
 70
   128
 71
  -161
 72
   160
 73
  -162
  0
VERTEX
  5
744
330
551
100
AcDbEntity
  8
5LA86-GEH1
100
AcDbFaceRecord
 10
0.0
 20
0.0
 30
0.0
 70
   128
 71
  -161
 72
  -162
 73
   163
  0
VERTEX
  5
745
330
551
100
AcDbEntity
  8
5LA86-GEH1
100
AcDbFaceRecord
 10
0.0
 20
0.0
 30
0.0
 70
   128
 71
  -163
 72
   162
 73
  -164
  0
VERTEX
  5
746
330
551
100
AcDbEntity
  8
5LA86-GEH1
100
AcDbFaceRecord
 10
0.0
 20
0.0
 30
0.0
 70
   128
 71
  -163
 72
  -164
 73
   165
  0
VERTEX
  5
747
330
551
100
AcDbEntity
  8
5LA86-GEH1
100
AcDbFaceRecord
 10
0.0
 20
0.0
 30
0.0
 70
   128
 71
  -165
 72
   164
 73
  -166
  0
VERTEX
  5
748
330
551
100
AcDbEntity
  8
5LA86-GEH1
100
AcDbFaceRecord
 10
0.0
 20
0.0
 30
0.0
 70
   128
 71
  -165
 72
  -166
 73
   167
  0
VERTEX
  5
749
330
551
100
AcDbEntity
  8
5LA86-GEH1
100
AcDbFaceRecord
 10
0.0
 20
0.0
 30
0.0
 70
   128
 71
  -167
 72
  -166
 73
   168
  0
VERTEX
  5
74A
330
551
100
AcDbEntity
  8
5LA86-GEH1
100
AcDbFaceRecord
 10
0.0
 20
0.0
 30
0.0
 70
   128
 71
  -168
 72
   166
 73
  -169
  0
VERTEX
  5
74B
330
551
100
AcDbEntity
  8
5LA86-GEH1
100
AcDbFaceRecord
 10
0.0
 20
0.0
 30
0.0
 70
   128
 71
  -168
 72
  -169
 73
   170
  0
VERTEX
  5
74C
330
551
100
AcDbEntity
  8
5LA86-GEH1
100
AcDbFaceRecord
 10
0.0
 20
0.0
 30
0.0
 70
   128
 71
  -170
 72
  -169
 73
   171
  0
VERTEX
  5
74D
330
551
100
AcDbEntity
  8
5LA86-GEH1
100
AcDbFaceRecord
 10
0.0
 20
0.0
 30
0.0
 70
   128
 71
  -171
 72
   169
 73
  -172
  0
VERTEX
  5
74E
330
551
100
AcDbEntity
  8
5LA86-GEH1
100
AcDbFaceRecord
 10
0.0
 20
0.0
 30
0.0
 70
   128
 71
  -171
 72
  -172
 73
   173
  0
VERTEX
  5
74F
330
551
100
AcDbEntity
  8
5LA86-GEH1
100
AcDbFaceRecord
 10
0.0
 20
0.0
 30
0.0
 70
   128
 71
  -173
 72
   172
 73
  -174
  0
VERTEX
  5
750
330
551
100
AcDbEntity
  8
5LA86-GEH1
100
AcDbFaceRecord
 10
0.0
 20
0.0
 30
0.0
 70
   128
 71
  -173
 72
  -174
 73
   175
  0
VERTEX
  5
751
330
551
100
AcDbEntity
  8
5LA86-GEH1
100
AcDbFaceRecord
 10
0.0
 20
0.0
 30
0.0
 70
   128
 71
  -175
 72
   174
 73
  -176
  0
VERTEX
  5
752
330
551
100
AcDbEntity
  8
5LA86-GEH1
100
AcDbFaceRecord
 10
0.0
 20
0.0
 30
0.0
 70
   128
 71
  -175
 72
  -176
 73
   177
  0
VERTEX
  5
753
330
551
100
AcDbEntity
  8
5LA86-GEH1
100
AcDbFaceRecord
 10
0.0
 20
0.0
 30
0.0
 70
   128
 71
  -177
 72
   176
 73
  -178
  0
VERTEX
  5
754
330
551
100
AcDbEntity
  8
5LA86-GEH1
100
AcDbFaceRecord
 10
0.0
 20
0.0
 30
0.0
 70
   128
 71
  -177
 72
  -178
 73
   179
  0
VERTEX
  5
755
330
551
100
AcDbEntity
  8
5LA86-GEH1
100
AcDbFaceRecord
 10
0.0
 20
0.0
 30
0.0
 70
   128
 71
  -179
 72
   178
 73
  -180
  0
VERTEX
  5
756
330
551
100
AcDbEntity
  8
5LA86-GEH1
100
AcDbFaceRecord
 10
0.0
 20
0.0
 30
0.0
 70
   128
 71
  -179
 72
  -180
 73
   181
  0
VERTEX
  5
757
330
551
100
AcDbEntity
  8
5LA86-GEH1
100
AcDbFaceRecord
 10
0.0
 20
0.0
 30
0.0
 70
   128
 71
  -181
 72
   180
 73
  -182
  0
VERTEX
  5
758
330
551
100
AcDbEntity
  8
5LA86-GEH1
100
AcDbFaceRecord
 10
0.0
 20
0.0
 30
0.0
 70
   128
 71
  -181
 72
  -182
 73
   183
  0
VERTEX
  5
759
330
551
100
AcDbEntity
  8
5LA86-GEH1
100
AcDbFaceRecord
 10
0.0
 20
0.0
 30
0.0
 70
   128
 71
  -183
 72
  -182
 73
   184
  0
VERTEX
  5
75A
330
551
100
AcDbEntity
  8
5LA86-GEH1
100
AcDbFaceRecord
 10
0.0
 20
0.0
 30
0.0
 70
   128
 71
  -184
 72
   182
 73
   185
  0
VERTEX
  5
75B
330
551
100
AcDbEntity
  8
5LA86-GEH1
100
AcDbFaceRecord
 10
0.0
 20
0.0
 30
0.0
 70
   128
 71
   186
 72
  -187
 73
   188
  0
VERTEX
  5
75C
330
551
100
AcDbEntity
  8
5LA86-GEH1
100
AcDbFaceRecord
 10
0.0
 20
0.0
 30
0.0
 70
   128
 71
  -188
 72
  -187
 73
   189
  0
VERTEX
  5
75D
330
551
100
AcDbEntity
  8
5LA86-GEH1
100
AcDbFaceRecord
 10
0.0
 20
0.0
 30
0.0
 70
   128
 71
  -189
 72
   187
 73
  -190
  0
VERTEX
  5
75E
330
551
100
AcDbEntity
  8
5LA86-GEH1
100
AcDbFaceRecord
 10
0.0
 20
0.0
 30
0.0
 70
   128
 71
  -189
 72
   190
 73
   191
  0
VERTEX
  5
75F
330
551
100
AcDbEntity
  8
5LA86-GEH1
100
AcDbFaceRecord
 10
0.0
 20
0.0
 30
0.0
 70
   128
 71
   192
 72
  -193
 73
   194
  0
VERTEX
  5
760
330
551
100
AcDbEntity
  8
5LA86-GEH1
100
AcDbFaceRecord
 10
0.0
 20
0.0
 30
0.0
 70
   128
 71
  -194
 72
  -193
 73
   195
  0
VERTEX
  5
761
330
551
100
AcDbEntity
  8
5LA86-GEH1
100
AcDbFaceRecord
 10
0.0
 20
0.0
 30
0.0
 70
   128
 71
  -195
 72
   193
 73
  -196
  0
VERTEX
  5
762
330
551
100
AcDbEntity
  8
5LA86-GEH1
100
AcDbFaceRecord
 10
0.0
 20
0.0
 30
0.0
 70
   128
 71
  -195
 72
   196
 73
   197
  0
VERTEX
  5
763
330
551
100
AcDbEntity
  8
5LA86-GEH1
100
AcDbFaceRecord
 10
0.0
 20
0.0
 30
0.0
 70
   128
 71
   198
 72
  -199
 73
  -200
  0
VERTEX
  5
764
330
551
100
AcDbEntity
  8
5LA86-GEH1
100
AcDbFaceRecord
 10
0.0
 20
0.0
 30
0.0
 70
   128
 71
  -200
 72
   199
 73
   201
  0
VERTEX
  5
765
330
551
100
AcDbEntity
  8
5LA86-GEH1
100
AcDbFaceRecord
 10
0.0
 20
0.0
 30
0.0
 70
   128
 71
   200
 72
  -201
 73
  -202
  0
VERTEX
  5
766
330
551
100
AcDbEntity
  8
5LA86-GEH1
100
AcDbFaceRecord
 10
0.0
 20
0.0
 30
0.0
 70
   128
 71
  -202
 72
   201
 73
  -203
  0
VERTEX
  5
767
330
551
100
AcDbEntity
  8
5LA86-GEH1
100
AcDbFaceRecord
 10
0.0
 20
0.0
 30
0.0
 70
   128
 71
  -202
 72
  -203
 73
  -204
  0
VERTEX
  5
768
330
551
100
AcDbEntity
  8
5LA86-GEH1
100
AcDbFaceRecord
 10
0.0
 20
0.0
 30
0.0
 70
   128
 71
  -204
 72
   203
 73
  -205
  0
VERTEX
  5
769
330
551
100
AcDbEntity
  8
5LA86-GEH1
100
AcDbFaceRecord
 10
0.0
 20
0.0
 30
0.0
 70
   128
 71
  -204
 72
  -205
 73
  -206
  0
VERTEX
  5
76A
330
551
100
AcDbEntity
  8
5LA86-GEH1
100
AcDbFaceRecord
 10
0.0
 20
0.0
 30
0.0
 70
   128
 71
  -206
 72
   205
 73
  -207
  0
VERTEX
  5
76B
330
551
100
AcDbEntity
  8
5LA86-GEH1
100
AcDbFaceRecord
 10
0.0
 20
0.0
 30
0.0
 70
   128
 71
  -206
 72
   207
 73
  -208
  0
VERTEX
  5
76C
330
551
100
AcDbEntity
  8
5LA86-GEH1
100
AcDbFaceRecord
 10
0.0
 20
0.0
 30
0.0
 70
   128
 71
   208
 72
   207
 73
  -209
  0
VERTEX
  5
76D
330
551
100
AcDbEntity
  8
5LA86-GEH1
100
AcDbFaceRecord
 10
0.0
 20
0.0
 30
0.0
 70
   128
 71
  -208
 72
   209
 73
  -210
  0
VERTEX
  5
76E
330
551
100
AcDbEntity
  8
5LA86-GEH1
100
AcDbFaceRecord
 10
0.0
 20
0.0
 30
0.0
 70
   128
 71
   210
 72
  -209
 73
  -211
  0
VERTEX
  5
76F
330
551
100
AcDbEntity
  8
5LA86-GEH1
100
AcDbFaceRecord
 10
0.0
 20
0.0
 30
0.0
 70
   128
 71
  -210
 72
  -211
 73
   212
  0
VERTEX
  5
770
330
551
100
AcDbEntity
  8
5LA86-GEH1
100
AcDbFaceRecord
 10
0.0
 20
0.0
 30
0.0
 70
   128
 71
  -212
 72
   211
 73
   213
  0
VERTEX
  5
771
330
551
100
AcDbEntity
  8
5LA86-GEH1
100
AcDbFaceRecord
 10
0.0
 20
0.0
 30
0.0
 70
   128
 71
   213
 72
  -211
 73
  -214
  0
VERTEX
  5
772
330
551
100
AcDbEntity
  8
5LA86-GEH1
100
AcDbFaceRecord
 10
0.0
 20
0.0
 30
0.0
 70
   128
 71
  -213
 72
   214
 73
   215
  0
VERTEX
  5
773
330
551
100
AcDbEntity
  8
5LA86-GEH1
100
AcDbFaceRecord
 10
0.0
 20
0.0
 30
0.0
 70
   128
 71
   215
 72
  -214
 73
  -216
  0
VERTEX
  5
774
330
551
100
AcDbEntity
  8
5LA86-GEH1
100
AcDbFaceRecord
 10
0.0
 20
0.0
 30
0.0
 70
   128
 71
  -215
 72
   216
 73
   217
  0
VERTEX
  5
775
330
551
100
AcDbEntity
  8
5LA86-GEH1
100
AcDbFaceRecord
 10
0.0
 20
0.0
 30
0.0
 70
   128
 71
   217
 72
  -216
 73
  -218
  0
VERTEX
  5
776
330
551
100
AcDbEntity
  8
5LA86-GEH1
100
AcDbFaceRecord
 10
0.0
 20
0.0
 30
0.0
 70
   128
 71
  -217
 72
   218
 73
   219
  0
VERTEX
  5
777
330
551
100
AcDbEntity
  8
5LA86-GEH1
100
AcDbFaceRecord
 10
0.0
 20
0.0
 30
0.0
 70
   128
 71
   219
 72
  -218
 73
  -220
  0
VERTEX
  5
778
330
551
100
AcDbEntity
  8
5LA86-GEH1
100
AcDbFaceRecord
 10
0.0
 20
0.0
 30
0.0
 70
   128
 71
  -219
 72
   220
 73
   221
  0
VERTEX
  5
779
330
551
100
AcDbEntity
  8
5LA86-GEH1
100
AcDbFaceRecord
 10
0.0
 20
0.0
 30
0.0
 70
   128
 71
   221
 72
  -220
 73
  -222
  0
VERTEX
  5
77A
330
551
100
AcDbEntity
  8
5LA86-GEH1
100
AcDbFaceRecord
 10
0.0
 20
0.0
 30
0.0
 70
   128
 71
  -221
 72
   222
 73
   223
  0
VERTEX
  5
77B
330
551
100
AcDbEntity
  8
5LA86-GEH1
100
AcDbFaceRecord
 10
0.0
 20
0.0
 30
0.0
 70
   128
 71
   223
 72
  -222
 73
  -224
  0
VERTEX
  5
77C
330
551
100
AcDbEntity
  8
5LA86-GEH1
100
AcDbFaceRecord
 10
0.0
 20
0.0
 30
0.0
 70
   128
 71
  -223
 72
   224
 73
   225
  0
VERTEX
  5
77D
330
551
100
AcDbEntity
  8
5LA86-GEH1
100
AcDbFaceRecord
 10
0.0
 20
0.0
 30
0.0
 70
   128
 71
   225
 72
  -224
 73
  -226
  0
VERTEX
  5
77E
330
551
100
AcDbEntity
  8
5LA86-GEH1
100
AcDbFaceRecord
 10
0.0
 20
0.0
 30
0.0
 70
   128
 71
  -225
 72
   226
 73
   227
  0
VERTEX
  5
77F
330
551
100
AcDbEntity
  8
5LA86-GEH1
100
AcDbFaceRecord
 10
0.0
 20
0.0
 30
0.0
 70
   128
 71
   227
 72
  -226
 73
  -228
  0
VERTEX
  5
780
330
551
100
AcDbEntity
  8
5LA86-GEH1
100
AcDbFaceRecord
 10
0.0
 20
0.0
 30
0.0
 70
   128
 71
  -227
 72
   228
 73
   229
  0
VERTEX
  5
781
330
551
100
AcDbEntity
  8
5LA86-GEH1
100
AcDbFaceRecord
 10
0.0
 20
0.0
 30
0.0
 70
   128
 71
   229
 72
  -228
 73
  -230
  0
VERTEX
  5
782
330
551
100
AcDbEntity
  8
5LA86-GEH1
100
AcDbFaceRecord
 10
0.0
 20
0.0
 30
0.0
 70
   128
 71
  -229
 72
   230
 73
   231
  0
VERTEX
  5
783
330
551
100
AcDbEntity
  8
5LA86-GEH1
100
AcDbFaceRecord
 10
0.0
 20
0.0
 30
0.0
 70
   128
 71
   231
 72
  -230
 73
  -232
  0
VERTEX
  5
784
330
551
100
AcDbEntity
  8
5LA86-GEH1
100
AcDbFaceRecord
 10
0.0
 20
0.0
 30
0.0
 70
   128
 71
  -231
 72
   232
 73
   233
  0
VERTEX
  5
785
330
551
100
AcDbEntity
  8
5LA86-GEH1
100
AcDbFaceRecord
 10
0.0
 20
0.0
 30
0.0
 70
   128
 71
   209
 72
   234
 73
  -211
  0
VERTEX
  5
786
330
551
100
AcDbEntity
  8
5LA86-GEH1
100
AcDbFaceRecord
 10
0.0
 20
0.0
 30
0.0
 70
   128
 71
   211
 72
  -234
 73
  -214
  0
VERTEX
  5
787
330
551
100
AcDbEntity
  8
5LA86-GEH1
100
AcDbFaceRecord
 10
0.0
 20
0.0
 30
0.0
 70
   128
 71
   234
 72
   235
 73
  -214
  0
VERTEX
  5
788
330
551
100
AcDbEntity
  8
5LA86-GEH1
100
AcDbFaceRecord
 10
0.0
 20
0.0
 30
0.0
 70
   128
 71
   214
 72
  -235
 73
  -216
  0
VERTEX
  5
789
330
551
100
AcDbEntity
  8
5LA86-GEH1
100
AcDbFaceRecord
 10
0.0
 20
0.0
 30
0.0
 70
   128
 71
   235
 72
   236
 73
  -216
  0
VERTEX
  5
78A
330
551
100
AcDbEntity
  8
5LA86-GEH1
100
AcDbFaceRecord
 10
0.0
 20
0.0
 30
0.0
 70
   128
 71
   216
 72
  -236
 73
  -218
  0
VERTEX
  5
78B
330
551
100
AcDbEntity
  8
5LA86-GEH1
100
AcDbFaceRecord
 10
0.0
 20
0.0
 30
0.0
 70
   128
 71
   236
 72
   237
 73
  -218
  0
VERTEX
  5
78C
330
551
100
AcDbEntity
  8
5LA86-GEH1
100
AcDbFaceRecord
 10
0.0
 20
0.0
 30
0.0
 70
   128
 71
   218
 72
  -237
 73
  -220
  0
VERTEX
  5
78D
330
551
100
AcDbEntity
  8
5LA86-GEH1
100
AcDbFaceRecord
 10
0.0
 20
0.0
 30
0.0
 70
   128
 71
   237
 72
   238
 73
  -220
  0
VERTEX
  5
78E
330
551
100
AcDbEntity
  8
5LA86-GEH1
100
AcDbFaceRecord
 10
0.0
 20
0.0
 30
0.0
 70
   128
 71
   220
 72
  -238
 73
  -222
  0
VERTEX
  5
78F
330
551
100
AcDbEntity
  8
5LA86-GEH1
100
AcDbFaceRecord
 10
0.0
 20
0.0
 30
0.0
 70
   128
 71
   238
 72
   239
 73
  -222
  0
VERTEX
  5
790
330
551
100
AcDbEntity
  8
5LA86-GEH1
100
AcDbFaceRecord
 10
0.0
 20
0.0
 30
0.0
 70
   128
 71
   222
 72
  -239
 73
  -224
  0
VERTEX
  5
791
330
551
100
AcDbEntity
  8
5LA86-GEH1
100
AcDbFaceRecord
 10
0.0
 20
0.0
 30
0.0
 70
   128
 71
   239
 72
   240
 73
  -224
  0
VERTEX
  5
792
330
551
100
AcDbEntity
  8
5LA86-GEH1
100
AcDbFaceRecord
 10
0.0
 20
0.0
 30
0.0
 70
   128
 71
   224
 72
  -240
 73
  -226
  0
VERTEX
  5
793
330
551
100
AcDbEntity
  8
5LA86-GEH1
100
AcDbFaceRecord
 10
0.0
 20
0.0
 30
0.0
 70
   128
 71
   240
 72
   241
 73
  -226
  0
VERTEX
  5
794
330
551
100
AcDbEntity
  8
5LA86-GEH1
100
AcDbFaceRecord
 10
0.0
 20
0.0
 30
0.0
 70
   128
 71
   226
 72
  -241
 73
  -228
  0
VERTEX
  5
795
330
551
100
AcDbEntity
  8
5LA86-GEH1
100
AcDbFaceRecord
 10
0.0
 20
0.0
 30
0.0
 70
   128
 71
   241
 72
   242
 73
  -228
  0
VERTEX
  5
796
330
551
100
AcDbEntity
  8
5LA86-GEH1
100
AcDbFaceRecord
 10
0.0
 20
0.0
 30
0.0
 70
   128
 71
   228
 72
  -242
 73
  -230
  0
VERTEX
  5
797
330
551
100
AcDbEntity
  8
5LA86-GEH1
100
AcDbFaceRecord
 10
0.0
 20
0.0
 30
0.0
 70
   128
 71
   242
 72
   243
 73
  -230
  0
VERTEX
  5
798
330
551
100
AcDbEntity
  8
5LA86-GEH1
100
AcDbFaceRecord
 10
0.0
 20
0.0
 30
0.0
 70
   128
 71
   230
 72
  -243
 73
  -232
  0
VERTEX
  5
799
330
551
100
AcDbEntity
  8
5LA86-GEH1
100
AcDbFaceRecord
 10
0.0
 20
0.0
 30
0.0
 70
   128
 71
   243
 72
   244
 73
  -232
  0
VERTEX
  5
79A
330
551
100
AcDbEntity
  8
5LA86-GEH1
100
AcDbFaceRecord
 10
0.0
 20
0.0
 30
0.0
 70
   128
 71
   210
 72
  -212
 73
  -208
  0
VERTEX
  5
79B
330
551
100
AcDbEntity
  8
5LA86-GEH1
100
AcDbFaceRecord
 10
0.0
 20
0.0
 30
0.0
 70
   128
 71
  -208
 72
   212
 73
   245
  0
VERTEX
  5
79C
330
551
100
AcDbEntity
  8
5LA86-GEH1
100
AcDbFaceRecord
 10
0.0
 20
0.0
 30
0.0
 70
   128
 71
   208
 72
  -245
 73
  -206
  0
VERTEX
  5
79D
330
551
100
AcDbEntity
  8
5LA86-GEH1
100
AcDbFaceRecord
 10
0.0
 20
0.0
 30
0.0
 70
   128
 71
  -206
 72
   245
 73
  -246
  0
VERTEX
  5
79E
330
551
100
AcDbEntity
  8
5LA86-GEH1
100
AcDbFaceRecord
 10
0.0
 20
0.0
 30
0.0
 70
   128
 71
  -206
 72
  -246
 73
  -204
  0
VERTEX
  5
79F
330
551
100
AcDbEntity
  8
5LA86-GEH1
100
AcDbFaceRecord
 10
0.0
 20
0.0
 30
0.0
 70
   128
 71
  -204
 72
   246
 73
  -247
  0
VERTEX
  5
7A0
330
551
100
AcDbEntity
  8
5LA86-GEH1
100
AcDbFaceRecord
 10
0.0
 20
0.0
 30
0.0
 70
   128
 71
  -204
 72
  -247
 73
  -202
  0
VERTEX
  5
7A1
330
551
100
AcDbEntity
  8
5LA86-GEH1
100
AcDbFaceRecord
 10
0.0
 20
0.0
 30
0.0
 70
   128
 71
  -202
 72
   247
 73
  -248
  0
VERTEX
  5
7A2
330
551
100
AcDbEntity
  8
5LA86-GEH1
100
AcDbFaceRecord
 10
0.0
 20
0.0
 30
0.0
 70
   128
 71
  -202
 72
   248
 73
  -200
  0
VERTEX
  5
7A3
330
551
100
AcDbEntity
  8
5LA86-GEH1
100
AcDbFaceRecord
 10
0.0
 20
0.0
 30
0.0
 70
   128
 71
   200
 72
   248
 73
  -249
  0
VERTEX
  5
7A4
330
551
100
AcDbEntity
  8
5LA86-GEH1
100
AcDbFaceRecord
 10
0.0
 20
0.0
 30
0.0
 70
   128
 71
  -200
 72
   249
 73
  -198
  0
VERTEX
  5
7A5
330
551
100
AcDbEntity
  8
5LA86-GEH1
100
AcDbFaceRecord
 10
0.0
 20
0.0
 30
0.0
 70
   128
 71
   250
 72
  -251
 73
   252
  0
VERTEX
  5
7A6
330
551
100
AcDbEntity
  8
5LA86-GEH1
100
AcDbFaceRecord
 10
0.0
 20
0.0
 30
0.0
 70
   128
 71
  -252
 72
  -251
 73
   253
  0
VERTEX
  5
7A7
330
551
100
AcDbEntity
  8
5LA86-GEH1
100
AcDbFaceRecord
 10
0.0
 20
0.0
 30
0.0
 70
   128
 71
  -253
 72
  -251
 73
   254
  0
VERTEX
  5
7A8
330
551
100
AcDbEntity
  8
5LA86-GEH1
100
AcDbFaceRecord
 10
0.0
 20
0.0
 30
0.0
 70
   128
 71
  -254
 72
   251
 73
  -255
  0
VERTEX
  5
7A9
330
551
100
AcDbEntity
  8
5LA86-GEH1
100
AcDbFaceRecord
 10
0.0
 20
0.0
 30
0.0
 70
   128
 71
  -254
 72
  -255
 73
   256
  0
VERTEX
  5
7AA
330
551
100
AcDbEntity
  8
5LA86-GEH1
100
AcDbFaceRecord
 10
0.0
 20
0.0
 30
0.0
 70
   128
 71
  -256
 72
   255
 73
  -257
  0
VERTEX
  5
7AB
330
551
100
AcDbEntity
  8
5LA86-GEH1
100
AcDbFaceRecord
 10
0.0
 20
0.0
 30
0.0
 70
   128
 71
  -256
 72
  -257
 73
   258
  0
VERTEX
  5
7AC
330
551
100
AcDbEntity
  8
5LA86-GEH1
100
AcDbFaceRecord
 10
0.0
 20
0.0
 30
0.0
 70
   128
 71
  -258
 72
   257
 73
  -259
  0
VERTEX
  5
7AD
330
551
100
AcDbEntity
  8
5LA86-GEH1
100
AcDbFaceRecord
 10
0.0
 20
0.0
 30
0.0
 70
   128
 71
  -258
 72
  -259
 73
   260
  0
VERTEX
  5
7AE
330
551
100
AcDbEntity
  8
5LA86-GEH1
100
AcDbFaceRecord
 10
0.0
 20
0.0
 30
0.0
 70
   128
 71
  -260
 72
   259
 73
  -261
  0
VERTEX
  5
7AF
330
551
100
AcDbEntity
  8
5LA86-GEH1
100
AcDbFaceRecord
 10
0.0
 20
0.0
 30
0.0
 70
   128
 71
  -260
 72
  -261
 73
   262
  0
VERTEX
  5
7B0
330
551
100
AcDbEntity
  8
5LA86-GEH1
100
AcDbFaceRecord
 10
0.0
 20
0.0
 30
0.0
 70
   128
 71
  -262
 72
   261
 73
  -263
  0
VERTEX
  5
7B1
330
551
100
AcDbEntity
  8
5LA86-GEH1
100
AcDbFaceRecord
 10
0.0
 20
0.0
 30
0.0
 70
   128
 71
  -262
 72
  -263
 73
   264
  0
VERTEX
  5
7B2
330
551
100
AcDbEntity
  8
5LA86-GEH1
100
AcDbFaceRecord
 10
0.0
 20
0.0
 30
0.0
 70
   128
 71
  -264
 72
   263
 73
  -265
  0
VERTEX
  5
7B3
330
551
100
AcDbEntity
  8
5LA86-GEH1
100
AcDbFaceRecord
 10
0.0
 20
0.0
 30
0.0
 70
   128
 71
  -264
 72
  -265
 73
   266
  0
VERTEX
  5
7B4
330
551
100
AcDbEntity
  8
5LA86-GEH1
100
AcDbFaceRecord
 10
0.0
 20
0.0
 30
0.0
 70
   128
 71
  -266
 72
  -265
 73
   267
  0
VERTEX
  5
7B5
330
551
100
AcDbEntity
  8
5LA86-GEH1
100
AcDbFaceRecord
 10
0.0
 20
0.0
 30
0.0
 70
   128
 71
  -267
 72
   265
 73
  -268
  0
VERTEX
  5
7B6
330
551
100
AcDbEntity
  8
5LA86-GEH1
100
AcDbFaceRecord
 10
0.0
 20
0.0
 30
0.0
 70
   128
 71
  -267
 72
  -268
 73
   269
  0
VERTEX
  5
7B7
330
551
100
AcDbEntity
  8
5LA86-GEH1
100
AcDbFaceRecord
 10
0.0
 20
0.0
 30
0.0
 70
   128
 71
  -269
 72
  -268
 73
   270
  0
VERTEX
  5
7B8
330
551
100
AcDbEntity
  8
5LA86-GEH1
100
AcDbFaceRecord
 10
0.0
 20
0.0
 30
0.0
 70
   128
 71
  -270
 72
   268
 73
  -271
  0
VERTEX
  5
7B9
330
551
100
AcDbEntity
  8
5LA86-GEH1
100
AcDbFaceRecord
 10
0.0
 20
0.0
 30
0.0
 70
   128
 71
  -270
 72
  -271
 73
   272
  0
VERTEX
  5
7BA
330
551
100
AcDbEntity
  8
5LA86-GEH1
100
AcDbFaceRecord
 10
0.0
 20
0.0
 30
0.0
 70
   128
 71
  -272
 72
   271
 73
  -273
  0
VERTEX
  5
7BB
330
551
100
AcDbEntity
  8
5LA86-GEH1
100
AcDbFaceRecord
 10
0.0
 20
0.0
 30
0.0
 70
   128
 71
  -272
 72
  -273
 73
   274
  0
VERTEX
  5
7BC
330
551
100
AcDbEntity
  8
5LA86-GEH1
100
AcDbFaceRecord
 10
0.0
 20
0.0
 30
0.0
 70
   128
 71
  -274
 72
   273
 73
  -275
  0
VERTEX
  5
7BD
330
551
100
AcDbEntity
  8
5LA86-GEH1
100
AcDbFaceRecord
 10
0.0
 20
0.0
 30
0.0
 70
   128
 71
  -274
 72
  -275
 73
   276
  0
VERTEX
  5
7BE
330
551
100
AcDbEntity
  8
5LA86-GEH1
100
AcDbFaceRecord
 10
0.0
 20
0.0
 30
0.0
 70
   128
 71
  -276
 72
   275
 73
  -277
  0
VERTEX
  5
7BF
330
551
100
AcDbEntity
  8
5LA86-GEH1
100
AcDbFaceRecord
 10
0.0
 20
0.0
 30
0.0
 70
   128
 71
  -276
 72
  -277
 73
   278
  0
VERTEX
  5
7C0
330
551
100
AcDbEntity
  8
5LA86-GEH1
100
AcDbFaceRecord
 10
0.0
 20
0.0
 30
0.0
 70
   128
 71
  -278
 72
   277
 73
  -279
  0
VERTEX
  5
7C1
330
551
100
AcDbEntity
  8
5LA86-GEH1
100
AcDbFaceRecord
 10
0.0
 20
0.0
 30
0.0
 70
   128
 71
  -278
 72
  -279
 73
   280
  0
VERTEX
  5
7C2
330
551
100
AcDbEntity
  8
5LA86-GEH1
100
AcDbFaceRecord
 10
0.0
 20
0.0
 30
0.0
 70
   128
 71
  -280
 72
   279
 73
   281
  0
VERTEX
  5
7C3
330
551
100
AcDbEntity
  8
5LA86-GEH1
100
AcDbFaceRecord
 10
0.0
 20
0.0
 30
0.0
 70
   128
 71
   282
 72
   283
 73
  -284
  0
VERTEX
  5
7C4
330
551
100
AcDbEntity
  8
5LA86-GEH1
100
AcDbFaceRecord
 10
0.0
 20
0.0
 30
0.0
 70
   128
 71
   284
 72
   283
 73
   285
  0
VERTEX
  5
7C5
330
551
100
AcDbEntity
  8
5LA86-GEH1
100
AcDbFaceRecord
 10
0.0
 20
0.0
 30
0.0
 70
   128
 71
   284
 72
   285
 73
   286
  0
VERTEX
  5
7C6
330
551
100
AcDbEntity
  8
5LA86-GEH1
100
AcDbFaceRecord
 10
0.0
 20
0.0
 30
0.0
 70
   128
 71
   286
 72
   285
 73
  -287
  0
VERTEX
  5
7C7
330
551
100
AcDbEntity
  8
5LA86-GEH1
100
AcDbFaceRecord
 10
0.0
 20
0.0
 30
0.0
 70
   128
 71
  -286
 72
   287
 73
   288
  0
VERTEX
  5
7C8
330
551
100
AcDbEntity
  8
5LA86-GEH1
100
AcDbFaceRecord
 10
0.0
 20
0.0
 30
0.0
 70
   128
 71
   288
 72
  -287
 73
   289
  0
VERTEX
  5
7C9
330
551
100
AcDbEntity
  8
5LA86-GEH1
100
AcDbFaceRecord
 10
0.0
 20
0.0
 30
0.0
 70
   128
 71
  -289
 72
   287
 73
   290
  0
VERTEX
  5
7CA
330
551
100
AcDbEntity
  8
5LA86-GEH1
100
AcDbFaceRecord
 10
0.0
 20
0.0
 30
0.0
 70
   128
 71
   289
 72
  -290
 73
   291
  0
VERTEX
  5
7CB
330
551
100
AcDbEntity
  8
5LA86-GEH1
100
AcDbFaceRecord
 10
0.0
 20
0.0
 30
0.0
 70
   128
 71
  -291
 72
   290
 73
   292
  0
VERTEX
  5
7CC
330
551
100
AcDbEntity
  8
5LA86-GEH1
100
AcDbFaceRecord
 10
0.0
 20
0.0
 30
0.0
 70
   128
 71
   291
 72
  -292
 73
   293
  0
VERTEX
  5
7CD
330
551
100
AcDbEntity
  8
5LA86-GEH1
100
AcDbFaceRecord
 10
0.0
 20
0.0
 30
0.0
 70
   128
 71
  -293
 72
   292
 73
  -294
  0
VERTEX
  5
7CE
330
551
100
AcDbEntity
  8
5LA86-GEH1
100
AcDbFaceRecord
 10
0.0
 20
0.0
 30
0.0
 70
   128
 71
  -293
 72
   294
 73
   295
  0
VERTEX
  5
7CF
330
551
100
AcDbEntity
  8
5LA86-GEH1
100
AcDbFaceRecord
 10
0.0
 20
0.0
 30
0.0
 70
   128
 71
   295
 72
  -294
 73
   296
  0
VERTEX
  5
7D0
330
551
100
AcDbEntity
  8
5LA86-GEH1
100
AcDbFaceRecord
 10
0.0
 20
0.0
 30
0.0
 70
   128
 71
  -296
 72
   294
 73
   297
  0
VERTEX
  5
7D1
330
551
100
AcDbEntity
  8
5LA86-GEH1
100
AcDbFaceRecord
 10
0.0
 20
0.0
 30
0.0
 70
   128
 71
   296
 72
   297
 73
  -298
  0
VERTEX
  5
7D2
330
551
100
AcDbEntity
  8
5LA86-GEH1
100
AcDbFaceRecord
 10
0.0
 20
0.0
 30
0.0
 70
   128
 71
  -299
 72
  -300
 73
   298
  0
VERTEX
  5
7D3
330
551
100
AcDbEntity
  8
5LA86-GEH1
100
AcDbFaceRecord
 10
0.0
 20
0.0
 30
0.0
 70
   128
 71
  -298
 72
   300
 73
   301
  0
VERTEX
  5
7D4
330
551
100
AcDbEntity
  8
5LA86-GEH1
100
AcDbFaceRecord
 10
0.0
 20
0.0
 30
0.0
 70
   128
 71
   298
 72
   301
 73
  -296
  0
VERTEX
  5
7D5
330
551
100
AcDbEntity
  8
5LA86-GEH1
100
AcDbFaceRecord
 10
0.0
 20
0.0
 30
0.0
 70
   128
 71
  -300
 72
   299
 73
   302
  0
VERTEX
  5
7D6
330
551
100
AcDbEntity
  8
5LA86-GEH1
100
AcDbFaceRecord
 10
0.0
 20
0.0
 30
0.0
 70
   128
 71
   302
 72
   299
 73
  -303
  0
VERTEX
  5
7D7
330
551
100
AcDbEntity
  8
5LA86-GEH1
100
AcDbFaceRecord
 10
0.0
 20
0.0
 30
0.0
 70
   128
 71
  -302
 72
   303
 73
   304
  0
VERTEX
  5
7D8
330
551
100
AcDbEntity
  8
5LA86-GEH1
100
AcDbFaceRecord
 10
0.0
 20
0.0
 30
0.0
 70
   128
 71
   304
 72
   303
 73
  -305
  0
VERTEX
  5
7D9
330
551
100
AcDbEntity
  8
5LA86-GEH1
100
AcDbFaceRecord
 10
0.0
 20
0.0
 30
0.0
 70
   128
 71
  -304
 72
   305
 73
   306
  0
VERTEX
  5
7DA
330
551
100
AcDbEntity
  8
5LA86-GEH1
100
AcDbFaceRecord
 10
0.0
 20
0.0
 30
0.0
 70
   128
 71
   306
 72
  -305
 73
   307
  0
VERTEX
  5
7DB
330
551
100
AcDbEntity
  8
5LA86-GEH1
100
AcDbFaceRecord
 10
0.0
 20
0.0
 30
0.0
 70
   128
 71
  -307
 72
   305
 73
   308
  0
VERTEX
  5
7DC
330
551
100
AcDbEntity
  8
5LA86-GEH1
100
AcDbFaceRecord
 10
0.0
 20
0.0
 30
0.0
 70
   128
 71
   307
 72
   308
 73
   309
  0
VERTEX
  5
7DD
330
551
100
AcDbEntity
  8
5LA86-GEH1
100
AcDbFaceRecord
 10
0.0
 20
0.0
 30
0.0
 70
   128
 71
   309
 72
   308
 73
   310
  0
VERTEX
  5
7DE
330
551
100
AcDbEntity
  8
5LA86-GEH1
100
AcDbFaceRecord
 10
0.0
 20
0.0
 30
0.0
 70
   128
 71
   309
 72
   310
 73
  -311
  0
VERTEX
  5
7DF
330
551
100
AcDbEntity
  8
5LA86-GEH1
100
AcDbFaceRecord
 10
0.0
 20
0.0
 30
0.0
 70
   128
 71
   312
 72
  -313
 73
   311
  0
VERTEX
  5
7E0
330
551
100
AcDbEntity
  8
5LA86-GEH1
100
AcDbFaceRecord
 10
0.0
 20
0.0
 30
0.0
 70
   128
 71
  -311
 72
   313
 73
  -314
  0
VERTEX
  5
7E1
330
551
100
AcDbEntity
  8
5LA86-GEH1
100
AcDbFaceRecord
 10
0.0
 20
0.0
 30
0.0
 70
   128
 71
  -311
 72
   314
 73
  -309
  0
VERTEX
  5
7E2
330
551
100
AcDbEntity
  8
5LA86-GEH1
100
AcDbFaceRecord
 10
0.0
 20
0.0
 30
0.0
 70
   128
 71
   312
 72
   315
 73
   313
  0
VERTEX
  5
7E3
330
551
100
AcDbEntity
  8
5LA86-GEH1
100
AcDbFaceRecord
 10
0.0
 20
0.0
 30
0.0
 70
   128
 71
   313
 72
   315
 73
   316
  0
VERTEX
  5
7E4
330
551
100
AcDbEntity
  8
5LA86-GEH1
100
AcDbFaceRecord
 10
0.0
 20
0.0
 30
0.0
 70
   128
 71
   316
 72
   315
 73
  -317
  0
VERTEX
  5
7E5
330
551
100
AcDbEntity
  8
5LA86-GEH1
100
AcDbFaceRecord
 10
0.0
 20
0.0
 30
0.0
 70
   128
 71
  -316
 72
   317
 73
   318
  0
VERTEX
  5
7E6
330
551
100
AcDbEntity
  8
5LA86-GEH1
100
AcDbFaceRecord
 10
0.0
 20
0.0
 30
0.0
 70
   128
 71
   318
 72
  -317
 73
   319
  0
VERTEX
  5
7E7
330
551
100
AcDbEntity
  8
5LA86-GEH1
100
AcDbFaceRecord
 10
0.0
 20
0.0
 30
0.0
 70
   128
 71
  -319
 72
   317
 73
   320
  0
VERTEX
  5
7E8
330
551
100
AcDbEntity
  8
5LA86-GEH1
100
AcDbFaceRecord
 10
0.0
 20
0.0
 30
0.0
 70
   128
 71
   319
 72
  -320
 73
   321
  0
VERTEX
  5
7E9
330
551
100
AcDbEntity
  8
5LA86-GEH1
100
AcDbFaceRecord
 10
0.0
 20
0.0
 30
0.0
 70
   128
 71
  -321
 72
   320
 73
   322
  0
VERTEX
  5
7EA
330
551
100
AcDbEntity
  8
5LA86-GEH1
100
AcDbFaceRecord
 10
0.0
 20
0.0
 30
0.0
 70
   128
 71
   321
 72
  -322
 73
   323
  0
VERTEX
  5
7EB
330
551
100
AcDbEntity
  8
5LA86-GEH1
100
AcDbFaceRecord
 10
0.0
 20
0.0
 30
0.0
 70
   128
 71
  -323
 72
   322
 73
  -324
  0
VERTEX
  5
7EC
330
551
100
AcDbEntity
  8
5LA86-GEH1
100
AcDbFaceRecord
 10
0.0
 20
0.0
 30
0.0
 70
   128
 71
  -323
 72
   324
 73
   325
  0
VERTEX
  5
7ED
330
551
100
AcDbEntity
  8
5LA86-GEH1
100
AcDbFaceRecord
 10
0.0
 20
0.0
 30
0.0
 70
   128
 71
   325
 72
  -324
 73
   326
  0
VERTEX
  5
7EE
330
551
100
AcDbEntity
  8
5LA86-GEH1
100
AcDbFaceRecord
 10
0.0
 20
0.0
 30
0.0
 70
   128
 71
  -326
 72
   324
 73
   327
  0
VERTEX
  5
7EF
330
551
100
AcDbEntity
  8
5LA86-GEH1
100
AcDbFaceRecord
 10
0.0
 20
0.0
 30
0.0
 70
   128
 71
   326
 72
   327
 73
  -328
  0
VERTEX
  5
7F0
330
551
100
AcDbEntity
  8
5LA86-GEH1
100
AcDbFaceRecord
 10
0.0
 20
0.0
 30
0.0
 70
   128
 71
  -329
 72
  -330
 73
   328
  0
VERTEX
  5
7F1
330
551
100
AcDbEntity
  8
5LA86-GEH1
100
AcDbFaceRecord
 10
0.0
 20
0.0
 30
0.0
 70
   128
 71
  -328
 72
   330
 73
   331
  0
VERTEX
  5
7F2
330
551
100
AcDbEntity
  8
5LA86-GEH1
100
AcDbFaceRecord
 10
0.0
 20
0.0
 30
0.0
 70
   128
 71
   328
 72
   331
 73
  -326
  0
VERTEX
  5
7F3
330
551
100
AcDbEntity
  8
5LA86-GEH1
100
AcDbFaceRecord
 10
0.0
 20
0.0
 30
0.0
 70
   128
 71
  -330
 72
   329
 73
   332
  0
VERTEX
  5
7F4
330
551
100
AcDbEntity
  8
5LA86-GEH1
100
AcDbFaceRecord
 10
0.0
 20
0.0
 30
0.0
 70
   128
 71
   332
 72
   329
 73
  -333
  0
VERTEX
  5
7F5
330
551
100
AcDbEntity
  8
5LA86-GEH1
100
AcDbFaceRecord
 10
0.0
 20
0.0
 30
0.0
 70
   128
 71
  -332
 72
   333
 73
   334
  0
VERTEX
  5
7F6
330
551
100
AcDbEntity
  8
5LA86-GEH1
100
AcDbFaceRecord
 10
0.0
 20
0.0
 30
0.0
 70
   128
 71
   334
 72
   333
 73
  -335
  0
VERTEX
  5
7F7
330
551
100
AcDbEntity
  8
5LA86-GEH1
100
AcDbFaceRecord
 10
0.0
 20
0.0
 30
0.0
 70
   128
 71
  -334
 72
   335
 73
   336
  0
VERTEX
  5
7F8
330
551
100
AcDbEntity
  8
5LA86-GEH1
100
AcDbFaceRecord
 10
0.0
 20
0.0
 30
0.0
 70
   128
 71
   336
 72
  -335
 73
   337
  0
VERTEX
  5
7F9
330
551
100
AcDbEntity
  8
5LA86-GEH1
100
AcDbFaceRecord
 10
0.0
 20
0.0
 30
0.0
 70
   128
 71
  -337
 72
   335
 73
   338
  0
VERTEX
  5
7FA
330
551
100
AcDbEntity
  8
5LA86-GEH1
100
AcDbFaceRecord
 10
0.0
 20
0.0
 30
0.0
 70
   128
 71
   337
 72
   338
 73
   339
  0
VERTEX
  5
7FB
330
551
100
AcDbEntity
  8
5LA86-GEH1
100
AcDbFaceRecord
 10
0.0
 20
0.0
 30
0.0
 70
   128
 71
   339
 72
   338
 73
   340
  0
VERTEX
  5
7FC
330
551
100
AcDbEntity
  8
5LA86-GEH1
100
AcDbFaceRecord
 10
0.0
 20
0.0
 30
0.0
 70
   128
 71
   339
 72
   340
 73
  -282
  0
VERTEX
  5
7FD
330
551
100
AcDbEntity
  8
5LA86-GEH1
100
AcDbFaceRecord
 10
0.0
 20
0.0
 30
0.0
 70
   128
 71
   284
 72
  -341
 73
  -282
  0
VERTEX
  5
7FE
330
551
100
AcDbEntity
  8
5LA86-GEH1
100
AcDbFaceRecord
 10
0.0
 20
0.0
 30
0.0
 70
   128
 71
  -282
 72
   341
 73
  -339
  0
VERTEX
  5
7FF
330
551
100
AcDbEntity
  8
5LA86-GEH1
100
AcDbFaceRecord
 10
0.0
 20
0.0
 30
0.0
 70
   128
 71
   342
 72
  -343
 73
   344
  0
VERTEX
  5
800
330
551
100
AcDbEntity
  8
5LA86-GEH1
100
AcDbFaceRecord
 10
0.0
 20
0.0
 30
0.0
 70
   128
 71
  -344
 72
  -343
 73
   345
  0
VERTEX
  5
801
330
551
100
AcDbEntity
  8
5LA86-GEH1
100
AcDbFaceRecord
 10
0.0
 20
0.0
 30
0.0
 70
   128
 71
  -345
 72
  -343
 73
   346
  0
VERTEX
  5
802
330
551
100
AcDbEntity
  8
5LA86-GEH1
100
AcDbFaceRecord
 10
0.0
 20
0.0
 30
0.0
 70
   128
 71
  -346
 72
   343
 73
   347
  0
SEQEND
  5
803
330
551
100
AcDbEntity
  8
5LA86-GEH1
  0
INSERT
  5
81E
330
1F
100
AcDbEntity
  8
AM_0
100
AcDbBlockReference
 66
     1
  2
RM_SDB
 10
0.0
 20
0.0
 30
0.0
1001
AVE_MATERIAL
1002
{
1000
Si05 Siteco Eise
1000
2
1000

1002
{
1002
}
1002
{
1070
    39
1002
{
1002
{
1010
0.4745098054409027
1020
0.4509803950786591
1030
0.4000000059604645
1002
}
1040
1.0
1000

1040
0.0
1002
{
1002
}
1040
0.0
1002
{
1002
}
1040
0.0
1002
}
1002
{
1002
{
1010
0.4745098054409027
1020
0.4509803950786591
1030
0.4000000059604645
1002
}
1040
1.0
1000

1040
0.0
1002
{
1002
}
1040
0.0
1002
{
1002
}
1040
0.0
1002
}
1002
{
1002
{
1010
0.4980392158031464
1020
0.4980392158031464
1030
0.4980392158031464
1002
}
1040
1.0
1000

1040
0.0
1002
{
1002
}
1040
0.0
1002
{
1002
}
1040
0.0
1002
}
1002
{
1070
     0
1002
{
1070
     1
1002
{
1040
1.0
1040
1.0
1000

1040
0.0
1002
{
1002
}
1040
0.0
1002
{
1002
}
1040
0.0
1002
}
1002
}
1040
0.0
1040
0.0
1040
0.0
1002
}
1002
{
1040
0.0
1040
0.0
1000

1040
0.0
1002
{
1002
}
1040
0.0
1002
{
1002
}
1040
0.0
1002
}
1002
{
1040
1.0
1040
1.0
1000

1040
0.0
1002
{
1002
}
1040
0.0
1002
{
1002
}
1040
0.0
1002
}
1002
{
1070
     0
1040
0.0
1002
{
1002
}
1040
0.0
1002
{
1002
}
1040
0.0
1002
}
1002
{
1040
0.0
1002
{
1002
{
1010
0.0
1020
0.0
1030
0.0
1002
}
1040
0.0
1000

1040
0.0
1002
{
1002
}
1040
0.0
1002
{
1002
}
1040
0.0
1002
}
1002
}
1002
{
1002
{
1070
     1
1002
{
1040
0.0
1040
1.0
1000

1040
0.0
1002
{
1002
}
1040
0.0
1002
{
1002
}
1040
0.0
1002
}
1002
}
1040
0.0
1002
{
1002
}
1010
0.0
1020
0.0
1030
0.0
1010
0.0
1020
0.0
1030
0.0
1010
0.0
1020
0.0
1030
0.0
1070
     0
1002
}
1002
{
1002
{
1040
0.0
1040
0.0
1002
{
1070
     0
1002
}
1002
}
1070
     0
1040
0.0
1002
{
1002
}
1002
}
1002
{
1002
}
1002
}
1002
{
1071
        0
1070
     3
1070
     0
1002
{
1070
     2
1070
     1
1070
     0
1040
0.0
1002
}
1070
     0
1070
     0
1002
{
1002
}
1002
}
1002
{
1040
8030.0
1040
190.3000030517578
1040
0.3050000071525574
1040
228.0
1040
545.0
1040
14.0
1040
17.39999961853027
1040
0.4560000002384186
1002
}
1000
9B6
1002
}
  0
ATTRIB
  5
81F
330
81E
100
AcDbEntity
  8
AM_0
100
AcDbText
 10
0.0
 20
0.0
 30
0.0
 40
0.2
  1
Si05 Siteco Eise
100
AcDbAttribute
  2
NAME
 70
     1
  0
ATTRIB
  5
820
330
81E
100
AcDbEntity
  8
AM_0
100
AcDbText
 10
0.0
 20
0.0
 30
0.0
 40
0.2
  1

100
AcDbAttribute
  2
ACADCOLOR
 70
     1
  0
ATTRIB
  5
821
330
81E
100
AcDbEntity
  8
AM_0
100
AcDbText
 10
0.0
 20
0.0
 30
0.0
 40
0.2
  1
0.4745,0.4510,0.4000
100
AcDbAttribute
  2
COLOR
 70
     1
  0
ATTRIB
  5
822
330
81E
100
AcDbEntity
  8
AM_0
100
AcDbText
 10
0.0
 20
0.0
 30
0.0
 40
0.2
  1
1.0,1.0,1.0
100
AcDbAttribute
  2
OPACITY
 70
     1
  0
ATTRIB
  5
823
330
81E
100
AcDbEntity
  8
AM_0
100
AcDbText
 10
0.0
 20
0.0
 30
0.0
 40
0.2
  1
("nullsurf" "")
100
AcDbAttribute
  2
SURFACE
 70
     1
  0
ATTRIB
  5
824
330
81E
100
AcDbEntity
  8
AM_0
100
AcDbText
 10
0.0
 20
0.0
 30
0.0
 40
0.2
  1
(11 "Ka" "1")(11 "Kd" "1")(11 "Ks" "1")(11 "roughness" "1")
100
AcDbAttribute
  2
SURF1
 70
     1
  0
ATTRIB
  5
825
330
81E
100
AcDbEntity
  8
AM_0
100
AcDbText
 10
0.0
 20
0.0
 30
0.0
 40
0.2
  1

100
AcDbAttribute
  2
SURF2
 70
     1
  0
ATTRIB
  5
826
330
81E
100
AcDbEntity
  8
AM_0
100
AcDbText
 10
0.0
 20
0.0
 30
0.0
 40
0.2
  1

100
AcDbAttribute
  2
SURF3
 70
     1
  0
ATTRIB
  5
827
330
81E
100
AcDbEntity
  8
AM_0
100
AcDbText
 10
0.0
 20
0.0
 30
0.0
 40
0.2
  1

100
AcDbAttribute
  2
SURF4
 70
     1
  0
ATTRIB
  5
828
330
81E
100
AcDbEntity
  8
AM_0
100
AcDbText
 10
0.0
 20
0.0
 30
0.0
 40
0.2
  1
-1.0
100
AcDbAttribute
  2
SHADINGRATE
 70
     1
  0
ATTRIB
  5
829
330
81E
100
AcDbEntity
  8
AM_0
100
AcDbText
 10
0.0
 20
0.0
 30
0.0
 40
0.2
  1
("nulldisp" "")
100
AcDbAttribute
  2
DISPLACEMENT
 70
     1
  0
ATTRIB
  5
82A
330
81E
100
AcDbEntity
  8
AM_0
100
AcDbText
 10
0.0
 20
0.0
 30
0.0
 40
0.2
  1

100
AcDbAttribute
  2
DISP1
 70
     1
  0
ATTRIB
  5
82B
330
81E
100
AcDbEntity
  8
AM_0
100
AcDbText
 10
0.0
 20
0.0
 30
0.0
 40
0.2
  1

100
AcDbAttribute
  2
DISP2
 70
     1
  0
ATTRIB
  5
82C
330
81E
100
AcDbEntity
  8
AM_0
100
AcDbText
 10
0.0
 20
0.0
 30
0.0
 40
0.2
  1

100
AcDbAttribute
  2
DISP3
 70
     1
  0
ATTRIB
  5
82D
330
81E
100
AcDbEntity
  8
AM_0
100
AcDbText
 10
0.0
 20
0.0
 30
0.0
 40
0.2
  1

100
AcDbAttribute
  2
DISP4
 70
     1
  0
ATTRIB
  5
82E
330
81E
100
AcDbEntity
  8
AM_0
100
AcDbText
 10
0.0
 20
0.0
 30
0.0
 40
0.2
  1
0.0
100
AcDbAttribute
  2
DBOUND
 70
     1
  0
ATTRIB
  5
82F
330
81E
100
AcDbEntity
  8
AM_0
100
AcDbText
 10
0.0
 20
0.0
 30
0.0
 40
0.2
  1
0
100
AcDbAttribute
  2
SMOOTH
 70
     1
  0
ATTRIB
  5
830
330
81E
100
AcDbEntity
  8
AM_0
100
AcDbText
 10
0.0
 20
0.0
 30
0.0
 40
0.2
  1
("" "")
100
AcDbAttribute
  2
ATMOSHPERE
 70
     1
  0
ATTRIB
  5
831
330
81E
100
AcDbEntity
  8
AM_0
100
AcDbText
 10
0.0
 20
0.0
 30
0.0
 40
0.2
  1

100
AcDbAttribute
  2
ATMO1
 70
     1
  0
ATTRIB
  5
832
330
81E
100
AcDbEntity
  8
AM_0
100
AcDbText
 10
0.0
 20
0.0
 30
0.0
 40
0.2
  1

100
AcDbAttribute
  2
ATMO2
 70
     1
  0
ATTRIB
  5
833
330
81E
100
AcDbEntity
  8
AM_0
100
AcDbText
 10
0.0
 20
0.0
 30
0.0
 40
0.2
  1

100
AcDbAttribute
  2
ATMO3
 70
     1
  0
ATTRIB
  5
834
330
81E
100
AcDbEntity
  8
AM_0
100
AcDbText
 10
0.0
 20
0.0
 30
0.0
 40
0.2
  1

100
AcDbAttribute
  2
ATMO4
 70
     1
  0
ATTRIB
  5
835
330
81E
100
AcDbEntity
  8
AM_0
100
AcDbText
 10
0.0
 20
0.0
 30
0.0
 40
0.2
  1
0.0 0.0 1.0 0.0 0.0 1.0 1.0 1.0
100
AcDbAttribute
  2
TCCORD
 70
     1
  0
SEQEND
  5
836
330
81E
100
AcDbEntity
  8
AM_0
  0
POLYLINE
  5
838
330
1F
100
AcDbEntity
  8
5LA86-GLAS
100
AcDbPolyFaceMesh
 66
     1
 10
0.0
 20
0.0
 30
0.0
 70
    64
 71
   177
 72
   178
1001
AVE_ENTITY_MATERIAL
1002
{
1000

1002
{
1071
        0
1070
     0
1070
     0
1002
{
1070
     0
1070
     0
1070
     0
1040
0.0
1002
}
1070
     0
1070
     0
1002
{
1002
}
1002
}
1002
{
1002
}
1002
{
1002
}
1011
0.0
1021
0.0
1031
0.0
1011
1.0
1021
0.0
1031
0.0
1011
0.0
1021
1.0
1031
0.0
1011
0.0
1021
0.0
1031
1.0
1002
}
  0
VERTEX
  5
839
330
838
100
AcDbEntity
  8
5LA86-GLAS
100
AcDbVertex
100
AcDbPolyFaceMeshVertex
 10
-122.942008972168
 20
-722.25
 30
-28.93567848205567
 70
   192
  0
VERTEX
  5
83A
330
838
100
AcDbEntity
  8
5LA86-GLAS
100
AcDbVertex
100
AcDbPolyFaceMeshVertex
 10
-113.6774749755859
 20
-722.25
 30
-37.77156066894531
 70
   192
  0
VERTEX
  5
83B
330
838
100
AcDbEntity
  8
5LA86-GLAS
100
AcDbVertex
100
AcDbPolyFaceMeshVertex
 10
-116.0126190185547
 20
-722.25
 30
-29.2744083404541
 70
   192
  0
VERTEX
  5
83C
330
838
100
AcDbEntity
  8
5LA86-GLAS
100
AcDbVertex
100
AcDbPolyFaceMeshVertex
 10
-108.3673324584961
 20
-722.25
 30
-35.82307434082031
 70
   192
  0
VERTEX
  5
83D
330
838
100
AcDbEntity
  8
5LA86-GLAS
100
AcDbVertex
100
AcDbPolyFaceMeshVertex
 10
-102.078369140625
 20
-722.25
 30
-45.8191909790039
 70
   192
  0
VERTEX
  5
83E
330
838
100
AcDbEntity
  8
5LA86-GLAS
100
AcDbVertex
100
AcDbPolyFaceMeshVertex
 10
-98.54505920410156
 20
-722.25
 30
-42.32743072509765
 70
   192
  0
VERTEX
  5
83F
330
838
100
AcDbEntity
  8
5LA86-GLAS
100
AcDbVertex
100
AcDbPolyFaceMeshVertex
 10
-88.33131408691405
 20
-722.25
 30
-52.94355773925781
 70
   192
  0
VERTEX
  5
840
330
838
100
AcDbEntity
  8
5LA86-GLAS
100
AcDbVertex
100
AcDbPolyFaceMeshVertex
 10
-86.42301177978515
 20
-722.25
 30
-48.53456878662109
 70
   192
  0
VERTEX
  5
841
330
838
100
AcDbEntity
  8
5LA86-GLAS
100
AcDbVertex
100
AcDbPolyFaceMeshVertex
 10
-72.80064392089844
 20
-722.25
 30
-58.95524215698242
 70
   192
  0
VERTEX
  5
842
330
838
100
AcDbEntity
  8
5LA86-GLAS
100
AcDbVertex
100
AcDbPolyFaceMeshVertex
 10
-72.00645446777343
 20
-722.25
 30
-54.1556282043457
 70
   192
  0
VERTEX
  5
843
330
838
100
AcDbEntity
  8
5LA86-GLAS
100
AcDbVertex
100
AcDbPolyFaceMeshVertex
 10
-55.75933456420898
 20
-722.25
 30
-63.75437927246093
 70
   192
  0
VERTEX
  5
844
330
838
100
AcDbEntity
  8
5LA86-GLAS
100
AcDbVertex
100
AcDbPolyFaceMeshVertex
 10
-55.46092987060546
 20
-722.25
 30
-58.88806915283203
 70
   192
  0
VERTEX
  5
845
330
838
100
AcDbEntity
  8
5LA86-GLAS
100
AcDbVertex
100
AcDbPolyFaceMeshVertex
 10
-37.53243637084961
 20
-722.25
 30
-67.24337005615234
 70
   192
  0
VERTEX
  5
846
330
838
100
AcDbEntity
  8
5LA86-GLAS
100
AcDbVertex
100
AcDbPolyFaceMeshVertex
 10
-37.13016128540039
 20
-722.25
 30
-62.44580078125
 70
   192
  0
VERTEX
  5
847
330
838
100
AcDbEntity
  8
5LA86-GLAS
100
AcDbVertex
100
AcDbPolyFaceMeshVertex
 10
-17.52902412414551
 20
-722.25
 30
-64.59401702880859
 70
   192
  0
VERTEX
  5
848
330
838
100
AcDbEntity
  8
5LA86-GLAS
100
AcDbVertex
100
AcDbPolyFaceMeshVertex
 10
0.3999073207378387
 20
-722.25
 30
-69.99990081787109
 70
   192
  0
VERTEX
  5
849
330
838
100
AcDbEntity
  8
5LA86-GLAS
100
AcDbVertex
100
AcDbPolyFaceMeshVertex
 10
2.693443059921264
 20
-722.25
 30
-65.18246459960938
 70
   192
  0
VERTEX
  5
84A
330
838
100
AcDbEntity
  8
5LA86-GLAS
100
AcDbVertex
100
AcDbPolyFaceMeshVertex
 10
22.81887435913086
 20
-722.25
 30
-64.16889953613281
 70
   192
  0
VERTEX
  5
84B
330
838
100
AcDbEntity
  8
5LA86-GLAS
100
AcDbVertex
100
AcDbPolyFaceMeshVertex
 10
38.25122451782227
 20
-722.25
 30
-67.1296157836914
 70
   192
  0
VERTEX
  5
84C
330
838
100
AcDbEntity
  8
5LA86-GLAS
100
AcDbVertex
100
AcDbPolyFaceMeshVertex
 10
42.13993453979492
 20
-722.25
 30
-61.62582778930664
 70
   192
  0
VERTEX
  5
84D
330
838
100
AcDbEntity
  8
5LA86-GLAS
100
AcDbVertex
100
AcDbPolyFaceMeshVertex
 10
56.33314895629883
 20
-722.25
 30
-63.61138153076172
 70
   192
  0
VERTEX
  5
84E
330
838
100
AcDbEntity
  8
5LA86-GLAS
100
AcDbVertex
100
AcDbPolyFaceMeshVertex
 10
60.03799438476562
 20
-722.25
 30
-57.72887802124023
 70
   192
  0
VERTEX
  5
84F
330
838
100
AcDbEntity
  8
5LA86-GLAS
100
AcDbVertex
100
AcDbPolyFaceMeshVertex
 10
73.19010162353515
 20
-722.25
 30
-58.81520843505859
 70
   192
  0
VERTEX
  5
850
330
838
100
AcDbEntity
  8
5LA86-GLAS
100
AcDbVertex
100
AcDbPolyFaceMeshVertex
 10
76.04148864746093
 20
-722.25
 30
-52.73001480102539
 70
   192
  0
VERTEX
  5
851
330
838
100
AcDbEntity
  8
5LA86-GLAS
100
AcDbVertex
100
AcDbPolyFaceMeshVertex
 10
88.55358123779296
 20
-722.25
 30
-52.82989120483398
 70
   192
  0
VERTEX
  5
852
330
838
100
AcDbEntity
  8
5LA86-GLAS
100
AcDbVertex
100
AcDbPolyFaceMeshVertex
 10
89.85485076904296
 20
-722.25
 30
-46.92304992675781
 70
   192
  0
VERTEX
  5
853
330
838
100
AcDbEntity
  8
5LA86-GLAS
100
AcDbVertex
100
AcDbPolyFaceMeshVertex
 10
102.1743011474609
 20
-722.25
 30
-45.74298095703125
 70
   192
  0
VERTEX
  5
854
330
838
100
AcDbEntity
  8
5LA86-GLAS
100
AcDbVertex
100
AcDbPolyFaceMeshVertex
 10
101.3577423095703
 20
-722.25
 30
-40.60948181152343
 70
   192
  0
VERTEX
  5
855
330
838
100
AcDbEntity
  8
5LA86-GLAS
100
AcDbVertex
100
AcDbPolyFaceMeshVertex
 10
113.7032165527344
 20
-722.25
 30
-37.72484588623047
 70
   192
  0
VERTEX
  5
856
330
838
100
AcDbEntity
  8
5LA86-GLAS
100
AcDbVertex
100
AcDbPolyFaceMeshVertex
 10
110.5826110839843
 20
-722.25
 30
-34.07043838500977
 70
   192
  0
VERTEX
  5
857
330
838
100
AcDbEntity
  8
5LA86-GLAS
100
AcDbVertex
100
AcDbPolyFaceMeshVertex
 10
117.6801300048828
 20
-722.25
 30
-27.54651832580567
 70
   192
  0
VERTEX
  5
858
330
838
100
AcDbEntity
  8
5LA86-GLAS
100
AcDbVertex
100
AcDbPolyFaceMeshVertex
 10
122.9115753173828
 20
-722.25
 30
-28.9356746673584
 70
   192
  0
VERTEX
  5
859
330
838
100
AcDbEntity
  8
5LA86-GLAS
100
AcDbVertex
100
AcDbPolyFaceMeshVertex
 10
117.6800689697265
 20
0.0000126652339532
 30
-27.54661941528321
 70
   192
  0
VERTEX
  5
85A
330
838
100
AcDbEntity
  8
5LA86-GLAS
100
AcDbVertex
100
AcDbPolyFaceMeshVertex
 10
117.6800079345703
 20
722.25
 30
-27.54672050476074
 70
   192
  0
VERTEX
  5
85B
330
838
100
AcDbEntity
  8
5LA86-GLAS
100
AcDbVertex
100
AcDbPolyFaceMeshVertex
 10
111.2253265380859
 20
0.0000112813004307
 30
-33.54576492309571
 70
   192
  0
VERTEX
  5
85C
330
838
100
AcDbEntity
  8
5LA86-GLAS
100
AcDbVertex
100
AcDbPolyFaceMeshVertex
 10
110.5824890136718
 20
722.25
 30
-34.07063674926758
 70
   192
  0
VERTEX
  5
85D
330
838
100
AcDbEntity
  8
5LA86-GLAS
100
AcDbVertex
100
AcDbPolyFaceMeshVertex
 10
102.9823760986328
 20
0.0000097405663837
 30
-39.57275390625
 70
   192
  0
VERTEX
  5
85E
330
838
100
AcDbEntity
  8
5LA86-GLAS
100
AcDbVertex
100
AcDbPolyFaceMeshVertex
 10
101.3576202392578
 20
722.25
 30
-40.60968017578125
 70
   192
  0
VERTEX
  5
85F
330
838
100
AcDbEntity
  8
5LA86-GLAS
100
AcDbVertex
100
AcDbPolyFaceMeshVertex
 10
89.23735046386719
 20
0.0000075047050814
 30
-47.21910095214844
 70
   192
  0
VERTEX
  5
860
330
838
100
AcDbEntity
  8
5LA86-GLAS
100
AcDbVertex
100
AcDbPolyFaceMeshVertex
 10
89.85472869873047
 20
722.25
 30
-46.92324829101562
 70
   192
  0
VERTEX
  5
861
330
838
100
AcDbEntity
  8
5LA86-GLAS
100
AcDbVertex
100
AcDbPolyFaceMeshVertex
 10
76.04136657714843
 20
722.25
 30
-52.7302131652832
 70
   192
  0
VERTEX
  5
862
330
838
100
AcDbEntity
  8
5LA86-GLAS
100
AcDbVertex
100
AcDbPolyFaceMeshVertex
 10
72.13037109375
 20
0.000005086938927
 30
-54.10365295410156
 70
   192
  0
VERTEX
  5
863
330
838
100
AcDbEntity
  8
5LA86-GLAS
100
AcDbVertex
100
AcDbPolyFaceMeshVertex
 10
60.03786849975586
 20
722.25
 30
-57.72907638549805
 70
   192
  0
VERTEX
  5
864
330
838
100
AcDbEntity
  8
5LA86-GLAS
100
AcDbVertex
100
AcDbPolyFaceMeshVertex
 10
51.92122268676758
 20
0.000002583049536
 30
-59.69593048095703
 70
   192
  0
VERTEX
  5
865
330
838
100
AcDbEntity
  8
5LA86-GLAS
100
AcDbVertex
100
AcDbPolyFaceMeshVertex
 10
42.13981246948242
 20
722.25
 30
-61.62602615356445
 70
   192
  0
VERTEX
  5
866
330
838
100
AcDbEntity
  8
5LA86-GLAS
100
AcDbVertex
100
AcDbPolyFaceMeshVertex
 10
29.2451171875
 20
0.000000116052675
 30
-63.50056457519531
 70
   192
  0
VERTEX
  5
867
330
838
100
AcDbEntity
  8
5LA86-GLAS
100
AcDbVertex
100
AcDbPolyFaceMeshVertex
 10
22.81875038146973
 20
722.25
 30
-64.16909790039063
 70
   192
  0
VERTEX
  5
868
330
838
100
AcDbEntity
  8
5LA86-GLAS
100
AcDbVertex
100
AcDbPolyFaceMeshVertex
 10
5.08684492111206
 20
-0.0000021782998374
 30
-65.14598083496093
 70
   192
  0
VERTEX
  5
869
330
838
100
AcDbEntity
  8
5LA86-GLAS
100
AcDbVertex
100
AcDbPolyFaceMeshVertex
 10
2.693319082260131
 20
722.25
 30
-65.18266296386719
 70
   192
  0
VERTEX
  5
86A
330
838
100
AcDbEntity
  8
5LA86-GLAS
100
AcDbVertex
100
AcDbPolyFaceMeshVertex
 10
-19.33695220947265
 20
-0.0000041724260882
 30
-64.4625244140625
 70
   192
  0
VERTEX
  5
86B
330
838
100
AcDbEntity
  8
5LA86-GLAS
100
AcDbVertex
100
AcDbPolyFaceMeshVertex
 10
-17.52914810180664
 20
722.25
 30
-64.5942153930664
 70
   192
  0
VERTEX
  5
86C
330
838
100
AcDbEntity
  8
5LA86-GLAS
100
AcDbVertex
100
AcDbPolyFaceMeshVertex
 10
-37.13028335571289
 20
722.25
 30
-62.44600677490234
 70
   192
  0
VERTEX
  5
86D
330
838
100
AcDbEntity
  8
5LA86-GLAS
100
AcDbVertex
100
AcDbPolyFaceMeshVertex
 10
-42.76638412475586
 20
-0.0000057684355852
 30
-61.52132415771484
 70
   192
  0
VERTEX
  5
86E
330
838
100
AcDbEntity
  8
5LA86-GLAS
100
AcDbVertex
100
AcDbPolyFaceMeshVertex
 10
-55.46105194091797
 20
722.25
 30
-58.88827133178711
 70
   192
  0
VERTEX
  5
86F
330
838
100
AcDbEntity
  8
5LA86-GLAS
100
AcDbVertex
100
AcDbPolyFaceMeshVertex
 10
-64.10083770751953
 20
-0.0000069131574492
 30
-56.61778259277344
 70
   192
  0
VERTEX
  5
870
330
838
100
AcDbEntity
  8
5LA86-GLAS
100
AcDbVertex
100
AcDbPolyFaceMeshVertex
 10
-72.00657653808594
 20
722.25
 30
-54.15583038330078
 70
   192
  0
VERTEX
  5
871
330
838
100
AcDbEntity
  8
5LA86-GLAS
100
AcDbVertex
100
AcDbPolyFaceMeshVertex
 10
-85.98243713378906
 20
-0.0000076910901043
 30
-48.73164749145508
 70
   192
  0
VERTEX
  5
872
330
838
100
AcDbEntity
  8
5LA86-GLAS
100
AcDbVertex
100
AcDbPolyFaceMeshVertex
 10
-86.42313385009765
 20
722.25
 30
-48.5347671508789
 70
   192
  0
VERTEX
  5
873
330
838
100
AcDbEntity
  8
5LA86-GLAS
100
AcDbVertex
100
AcDbPolyFaceMeshVertex
 10
-98.54518127441407
 20
722.25
 30
-42.32762908935547
 70
   192
  0
VERTEX
  5
874
330
838
100
AcDbEntity
  8
5LA86-GLAS
100
AcDbVertex
100
AcDbPolyFaceMeshVertex
 10
-103.0129318237305
 20
-0.0000078776347436
 30
-39.5727653503418
 70
   192
  0
VERTEX
  5
875
330
838
100
AcDbEntity
  8
5LA86-GLAS
100
AcDbVertex
100
AcDbPolyFaceMeshVertex
 10
-108.3674545288086
 20
722.25
 30
-35.82327270507813
 70
   192
  0
VERTEX
  5
876
330
838
100
AcDbEntity
  8
5LA86-GLAS
100
AcDbVertex
100
AcDbPolyFaceMeshVertex
 10
-110.6396026611328
 20
-0.0000077639815572
 30
-34.04911804199219
 70
   192
  0
VERTEX
  5
877
330
838
100
AcDbEntity
  8
5LA86-GLAS
100
AcDbVertex
100
AcDbPolyFaceMeshVertex
 10
-116.0127410888672
 20
722.25
 30
-29.27461051940918
 70
   192
  0
VERTEX
  5
878
330
838
100
AcDbEntity
  8
5LA86-GLAS
100
AcDbVertex
100
AcDbPolyFaceMeshVertex
 10
-116.0126800537109
 20
-0.0000075614502748
 30
-29.27450942993164
 70
   192
  0
VERTEX
  5
879
330
838
100
AcDbEntity
  8
5LA86-GLAS
100
AcDbVertex
100
AcDbPolyFaceMeshVertex
 10
-116.0126190185547
 20
-722.25
 30
-29.2744083404541
 70
   192
  0
VERTEX
  5
87A
330
838
100
AcDbEntity
  8
5LA86-GLAS
100
AcDbVertex
100
AcDbPolyFaceMeshVertex
 10
-108.3673324584961
 20
-722.25
 30
-35.82307434082031
 70
   192
  0
VERTEX
  5
87B
330
838
100
AcDbEntity
  8
5LA86-GLAS
100
AcDbVertex
100
AcDbPolyFaceMeshVertex
 10
-98.54505920410156
 20
-722.25
 30
-42.32743072509765
 70
   192
  0
VERTEX
  5
87C
330
838
100
AcDbEntity
  8
5LA86-GLAS
100
AcDbVertex
100
AcDbPolyFaceMeshVertex
 10
-86.42301177978515
 20
-722.25
 30
-48.53456878662109
 70
   192
  0
VERTEX
  5
87D
330
838
100
AcDbEntity
  8
5LA86-GLAS
100
AcDbVertex
100
AcDbPolyFaceMeshVertex
 10
-72.00645446777343
 20
-722.25
 30
-54.1556282043457
 70
   192
  0
VERTEX
  5
87E
330
838
100
AcDbEntity
  8
5LA86-GLAS
100
AcDbVertex
100
AcDbPolyFaceMeshVertex
 10
-55.46092987060546
 20
-722.25
 30
-58.88806915283203
 70
   192
  0
VERTEX
  5
87F
330
838
100
AcDbEntity
  8
5LA86-GLAS
100
AcDbVertex
100
AcDbPolyFaceMeshVertex
 10
-37.13016128540039
 20
-722.25
 30
-62.44580078125
 70
   192
  0
VERTEX
  5
880
330
838
100
AcDbEntity
  8
5LA86-GLAS
100
AcDbVertex
100
AcDbPolyFaceMeshVertex
 10
-17.52902412414551
 20
-722.25
 30
-64.59401702880859
 70
   192
  0
VERTEX
  5
881
330
838
100
AcDbEntity
  8
5LA86-GLAS
100
AcDbVertex
100
AcDbPolyFaceMeshVertex
 10
2.693443059921264
 20
-722.25
 30
-65.18246459960938
 70
   192
  0
VERTEX
  5
882
330
838
100
AcDbEntity
  8
5LA86-GLAS
100
AcDbVertex
100
AcDbPolyFaceMeshVertex
 10
22.81887435913086
 20
-722.25
 30
-64.16889953613281
 70
   192
  0
VERTEX
  5
883
330
838
100
AcDbEntity
  8
5LA86-GLAS
100
AcDbVertex
100
AcDbPolyFaceMeshVertex
 10
42.13993453979492
 20
-722.25
 30
-61.62582778930664
 70
   192
  0
VERTEX
  5
884
330
838
100
AcDbEntity
  8
5LA86-GLAS
100
AcDbVertex
100
AcDbPolyFaceMeshVertex
 10
60.03799438476562
 20
-722.25
 30
-57.72887802124023
 70
   192
  0
VERTEX
  5
885
330
838
100
AcDbEntity
  8
5LA86-GLAS
100
AcDbVertex
100
AcDbPolyFaceMeshVertex
 10
76.04148864746093
 20
-722.25
 30
-52.73001480102539
 70
   192
  0
VERTEX
  5
886
330
838
100
AcDbEntity
  8
5LA86-GLAS
100
AcDbVertex
100
AcDbPolyFaceMeshVertex
 10
89.85485076904296
 20
-722.25
 30
-46.92304992675781
 70
   192
  0
VERTEX
  5
887
330
838
100
AcDbEntity
  8
5LA86-GLAS
100
AcDbVertex
100
AcDbPolyFaceMeshVertex
 10
101.3577423095703
 20
-722.25
 30
-40.60948181152343
 70
   192
  0
VERTEX
  5
888
330
838
100
AcDbEntity
  8
5LA86-GLAS
100
AcDbVertex
100
AcDbPolyFaceMeshVertex
 10
110.5826110839843
 20
-722.25
 30
-34.07043838500977
 70
   192
  0
VERTEX
  5
889
330
838
100
AcDbEntity
  8
5LA86-GLAS
100
AcDbVertex
100
AcDbPolyFaceMeshVertex
 10
117.6801300048828
 20
-722.25
 30
-27.54651832580567
 70
   192
  0
VERTEX
  5
88A
330
838
100
AcDbEntity
  8
5LA86-GLAS
100
AcDbVertex
100
AcDbPolyFaceMeshVertex
 10
-122.9421310424804
 20
722.25
 30
-28.93588066101074
 70
   192
  0
VERTEX
  5
88B
330
838
100
AcDbEntity
  8
5LA86-GLAS
100
AcDbVertex
100
AcDbPolyFaceMeshVertex
 10
-122.9420700073242
 20
-0.0000081071302702
 30
-28.93577957153321
 70
   192
  0
VERTEX
  5
88C
330
838
100
AcDbEntity
  8
5LA86-GLAS
100
AcDbVertex
100
AcDbPolyFaceMeshVertex
 10
-116.0127410888672
 20
722.25
 30
-29.27461051940918
 70
   192
  0
VERTEX
  5
88D
330
838
100
AcDbEntity
  8
5LA86-GLAS
100
AcDbVertex
100
AcDbPolyFaceMeshVertex
 10
-116.0126800537109
 20
-0.0000075614502748
 30
-29.27450942993164
 70
   192
  0
VERTEX
  5
88E
330
838
100
AcDbEntity
  8
5LA86-GLAS
100
AcDbVertex
100
AcDbPolyFaceMeshVertex
 10
-122.942008972168
 20
-722.25
 30
-28.93567848205567
 70
   192
  0
VERTEX
  5
88F
330
838
100
AcDbEntity
  8
5LA86-GLAS
100
AcDbVertex
100
AcDbPolyFaceMeshVertex
 10
-116.0126190185547
 20
-722.25
 30
-29.2744083404541
 70
   192
  0
VERTEX
  5
890
330
838
100
AcDbEntity
  8
5LA86-GLAS
100
AcDbVertex
100
AcDbPolyFaceMeshVertex
 10
-122.9420700073242
 20
-0.0000081071302702
 30
-28.93577957153321
 70
   192
  0
VERTEX
  5
891
330
838
100
AcDbEntity
  8
5LA86-GLAS
100
AcDbVertex
100
AcDbPolyFaceMeshVertex
 10
-122.9421310424804
 20
722.25
 30
-28.93588066101074
 70
   192
  0
VERTEX
  5
892
330
838
100
AcDbEntity
  8
5LA86-GLAS
100
AcDbVertex
100
AcDbPolyFaceMeshVertex
 10
-115.5027465820312
 20
-0.000008485424587
 30
-36.25234603881836
 70
   192
  0
VERTEX
  5
893
330
838
100
AcDbEntity
  8
5LA86-GLAS
100
AcDbVertex
100
AcDbPolyFaceMeshVertex
 10
-113.6775970458984
 20
722.25
 30
-37.77175903320312
 70
   192
  0
VERTEX
  5
894
330
838
100
AcDbEntity
  8
5LA86-GLAS
100
AcDbVertex
100
AcDbPolyFaceMeshVertex
 10
-106.4678039550781
 20
-0.0000086554000518
 30
-43.05075454711913
 70
   192
  0
VERTEX
  5
895
330
838
100
AcDbEntity
  8
5LA86-GLAS
100
AcDbVertex
100
AcDbPolyFaceMeshVertex
 10
-102.0784912109375
 20
722.25
 30
-45.81938934326172
 70
   192
  0
VERTEX
  5
896
330
838
100
AcDbEntity
  8
5LA86-GLAS
100
AcDbVertex
100
AcDbPolyFaceMeshVertex
 10
-88.3768539428711
 20
-0.0000084771099864
 30
-52.92324447631836
 70
   192
  0
VERTEX
  5
897
330
838
100
AcDbEntity
  8
5LA86-GLAS
100
AcDbVertex
100
AcDbPolyFaceMeshVertex
 10
-88.33143615722656
 20
722.25
 30
-52.94375610351562
 70
   192
  0
VERTEX
  5
898
330
838
100
AcDbEntity
  8
5LA86-GLAS
100
AcDbVertex
100
AcDbPolyFaceMeshVertex
 10
-72.80076599121094
 20
722.25
 30
-58.95544052124023
 70
   192
  0
VERTEX
  5
899
330
838
100
AcDbEntity
  8
5LA86-GLAS
100
AcDbVertex
100
AcDbPolyFaceMeshVertex
 10
-66.99542236328125
 20
-0.0000077375107139
 30
-60.77732849121094
 70
   192
  0
VERTEX
  5
89A
330
838
100
AcDbEntity
  8
5LA86-GLAS
100
AcDbVertex
100
AcDbPolyFaceMeshVertex
 10
-55.75945663452149
 20
722.25
 30
-63.75457763671875
 70
   192
  0
VERTEX
  5
89B
330
838
100
AcDbEntity
  8
5LA86-GLAS
100
AcDbVertex
100
AcDbPolyFaceMeshVertex
 10
-43.02738571166992
 20
-0.0000064607265813
 30
-66.35285186767578
 70
   192
  0
VERTEX
  5
89C
330
838
100
AcDbEntity
  8
5LA86-GLAS
100
AcDbVertex
100
AcDbPolyFaceMeshVertex
 10
-37.53255844116211
 20
722.25
 30
-67.24357604980468
 70
   192
  0
VERTEX
  5
89D
330
838
100
AcDbEntity
  8
5LA86-GLAS
100
AcDbVertex
100
AcDbPolyFaceMeshVertex
 10
-43.02738571166992
 20
-0.0000064607265813
 30
-66.35285186767578
 70
   192
  0
VERTEX
  5
89E
330
838
100
AcDbEntity
  8
5LA86-GLAS
100
AcDbVertex
100
AcDbPolyFaceMeshVertex
 10
0.3997833430767059
 20
722.25
 30
-70.00010681152343
 70
   192
  0
VERTEX
  5
89F
330
838
100
AcDbEntity
  8
5LA86-GLAS
100
AcDbVertex
100
AcDbPolyFaceMeshVertex
 10
-43.02738571166992
 20
-0.0000064607265813
 30
-66.35285186767578
 70
   192
  0
VERTEX
  5
8A0
330
838
100
AcDbEntity
  8
5LA86-GLAS
100
AcDbVertex
100
AcDbPolyFaceMeshVertex
 10
45.35881042480468
 20
0.0000011575421013
 30
-65.92848205566406
 70
   192
  0
VERTEX
  5
8A1
330
838
100
AcDbEntity
  8
5LA86-GLAS
100
AcDbVertex
100
AcDbPolyFaceMeshVertex
 10
0.3999073207378387
 20
-722.25
 30
-69.99990081787109
 70
   192
  0
VERTEX
  5
8A2
330
838
100
AcDbEntity
  8
5LA86-GLAS
100
AcDbVertex
100
AcDbPolyFaceMeshVertex
 10
45.35881042480468
 20
0.0000011575421013
 30
-65.92848205566406
 70
   192
  0
VERTEX
  5
8A3
330
838
100
AcDbEntity
  8
5LA86-GLAS
100
AcDbVertex
100
AcDbPolyFaceMeshVertex
 10
38.25122451782227
 20
-722.25
 30
-67.1296157836914
 70
   192
  0
VERTEX
  5
8A4
330
838
100
AcDbEntity
  8
5LA86-GLAS
100
AcDbVertex
100
AcDbPolyFaceMeshVertex
 10
45.35881042480468
 20
0.0000011575421013
 30
-65.92848205566406
 70
   192
  0
VERTEX
  5
8A5
330
838
100
AcDbEntity
  8
5LA86-GLAS
100
AcDbVertex
100
AcDbPolyFaceMeshVertex
 10
56.33314895629883
 20
-722.25
 30
-63.61138153076172
 70
   192
  0
VERTEX
  5
8A6
330
838
100
AcDbEntity
  8
5LA86-GLAS
100
AcDbVertex
100
AcDbPolyFaceMeshVertex
 10
45.35881042480468
 20
0.0000011575421013
 30
-65.92848205566406
 70
   192
  0
VERTEX
  5
8A7
330
838
100
AcDbEntity
  8
5LA86-GLAS
100
AcDbVertex
100
AcDbPolyFaceMeshVertex
 10
64.87684631347656
 20
0.000003457124194
 30
-61.38331604003906
 70
   192
  0
VERTEX
  5
8A8
330
838
100
AcDbEntity
  8
5LA86-GLAS
100
AcDbVertex
100
AcDbPolyFaceMeshVertex
 10
73.19010162353515
 20
-722.25
 30
-58.81520843505859
 70
   192
  0
VERTEX
  5
8A9
330
838
100
AcDbEntity
  8
5LA86-GLAS
100
AcDbVertex
100
AcDbPolyFaceMeshVertex
 10
82.94499206542969
 20
0.0000058565678955
 30
-55.22371673583984
 70
   192
  0
VERTEX
  5
8AA
330
838
100
AcDbEntity
  8
5LA86-GLAS
100
AcDbVertex
100
AcDbPolyFaceMeshVertex
 10
88.55358123779296
 20
-722.25
 30
-52.82989120483398
 70
   192
  0
VERTEX
  5
8AB
330
838
100
AcDbEntity
  8
5LA86-GLAS
100
AcDbVertex
100
AcDbPolyFaceMeshVertex
 10
98.9265594482422
 20
0.0000082772348833
 30
-47.62410354614257
 70
   192
  0
VERTEX
  5
8AC
330
838
100
AcDbEntity
  8
5LA86-GLAS
100
AcDbVertex
100
AcDbPolyFaceMeshVertex
 10
102.1743011474609
 20
-722.25
 30
-45.74298095703125
 70
   192
  0
VERTEX
  5
8AD
330
838
100
AcDbEntity
  8
5LA86-GLAS
100
AcDbVertex
100
AcDbPolyFaceMeshVertex
 10
112.3767929077148
 20
0.0000106541165223
 30
-38.77895355224609
 70
   192
  0
VERTEX
  5
8AE
330
838
100
AcDbEntity
  8
5LA86-GLAS
100
AcDbVertex
100
AcDbPolyFaceMeshVertex
 10
113.7032165527344
 20
-722.25
 30
-37.72484588623047
 70
   192
  0
VERTEX
  5
8AF
330
838
100
AcDbEntity
  8
5LA86-GLAS
100
AcDbVertex
100
AcDbPolyFaceMeshVertex
 10
122.9115142822265
 20
0.0000129200361698
 30
-28.93577575683594
 70
   192
  0
VERTEX
  5
8B0
330
838
100
AcDbEntity
  8
5LA86-GLAS
100
AcDbVertex
100
AcDbPolyFaceMeshVertex
 10
122.9115753173828
 20
-722.25
 30
-28.9356746673584
 70
   192
  0
VERTEX
  5
8B1
330
838
100
AcDbEntity
  8
5LA86-GLAS
100
AcDbVertex
100
AcDbPolyFaceMeshVertex
 10
38.2510986328125
 20
722.25
 30
-67.12982177734375
 70
   192
  0
VERTEX
  5
8B2
330
838
100
AcDbEntity
  8
5LA86-GLAS
100
AcDbVertex
100
AcDbPolyFaceMeshVertex
 10
45.35881042480468
 20
0.0000011575421013
 30
-65.92848205566406
 70
   192
  0
VERTEX
  5
8B3
330
838
100
AcDbEntity
  8
5LA86-GLAS
100
AcDbVertex
100
AcDbPolyFaceMeshVertex
 10
56.33302688598632
 20
722.25
 30
-63.61158752441406
 70
   192
  0
VERTEX
  5
8B4
330
838
100
AcDbEntity
  8
5LA86-GLAS
100
AcDbVertex
100
AcDbPolyFaceMeshVertex
 10
45.35881042480468
 20
0.0000011575421013
 30
-65.92848205566406
 70
   192
  0
VERTEX
  5
8B5
330
838
100
AcDbEntity
  8
5LA86-GLAS
100
AcDbVertex
100
AcDbPolyFaceMeshVertex
 10
45.35881042480468
 20
0.0000011575421013
 30
-65.92848205566406
 70
   192
  0
VERTEX
  5
8B6
330
838
100
AcDbEntity
  8
5LA86-GLAS
100
AcDbVertex
100
AcDbPolyFaceMeshVertex
 10
73.18997192382813
 20
722.25
 30
-58.81541061401367
 70
   192
  0
VERTEX
  5
8B7
330
838
100
AcDbEntity
  8
5LA86-GLAS
100
AcDbVertex
100
AcDbPolyFaceMeshVertex
 10
88.55345916748047
 20
722.25
 30
-52.8300895690918
 70
   192
  0
VERTEX
  5
8B8
330
838
100
AcDbEntity
  8
5LA86-GLAS
100
AcDbVertex
100
AcDbPolyFaceMeshVertex
 10
102.1741790771484
 20
722.25
 30
-45.74317932128906
 70
   192
  0
VERTEX
  5
8B9
330
838
100
AcDbEntity
  8
5LA86-GLAS
100
AcDbVertex
100
AcDbPolyFaceMeshVertex
 10
113.7030944824219
 20
722.25
 30
-37.72504425048828
 70
   192
  0
VERTEX
  5
8BA
330
838
100
AcDbEntity
  8
5LA86-GLAS
100
AcDbVertex
100
AcDbPolyFaceMeshVertex
 10
122.9114532470703
 20
722.25
 30
-28.93587684631348
 70
   192
  0
VERTEX
  5
8BB
330
838
100
AcDbEntity
  8
5LA86-GLAS
100
AcDbVertex
100
AcDbPolyFaceMeshVertex
 10
-43.02738571166992
 20
-0.0000064607265813
 30
-66.35285186767578
 70
   192
  0
VERTEX
  5
8BC
330
838
100
AcDbEntity
  8
5LA86-GLAS
100
AcDbVertex
100
AcDbPolyFaceMeshVertex
 10
-43.02738571166992
 20
-0.0000064607265813
 30
-66.35285186767578
 70
   192
  0
VERTEX
  5
8BD
330
838
100
AcDbEntity
  8
5LA86-GLAS
100
AcDbVertex
100
AcDbPolyFaceMeshVertex
 10
-37.53243637084961
 20
-722.25
 30
-67.24337005615234
 70
   192
  0
VERTEX
  5
8BE
330
838
100
AcDbEntity
  8
5LA86-GLAS
100
AcDbVertex
100
AcDbPolyFaceMeshVertex
 10
-55.75933456420898
 20
-722.25
 30
-63.75437927246093
 70
   192
  0
VERTEX
  5
8BF
330
838
100
AcDbEntity
  8
5LA86-GLAS
100
AcDbVertex
100
AcDbPolyFaceMeshVertex
 10
-72.80064392089844
 20
-722.25
 30
-58.95524215698242
 70
   192
  0
VERTEX
  5
8C0
330
838
100
AcDbEntity
  8
5LA86-GLAS
100
AcDbVertex
100
AcDbPolyFaceMeshVertex
 10
-88.33131408691405
 20
-722.25
 30
-52.94355773925781
 70
   192
  0
VERTEX
  5
8C1
330
838
100
AcDbEntity
  8
5LA86-GLAS
100
AcDbVertex
100
AcDbPolyFaceMeshVertex
 10
-102.078369140625
 20
-722.25
 30
-45.8191909790039
 70
   192
  0
VERTEX
  5
8C2
330
838
100
AcDbEntity
  8
5LA86-GLAS
100
AcDbVertex
100
AcDbPolyFaceMeshVertex
 10
-113.6774749755859
 20
-722.25
 30
-37.77156066894531
 70
   192
  0
VERTEX
  5
8C3
330
838
100
AcDbEntity
  8
5LA86-GLAS
100
AcDbVertex
100
AcDbPolyFaceMeshVertex
 10
-122.942008972168
 20
-722.25
 30
-28.93567848205567
 70
   192
  0
VERTEX
  5
8C4
330
838
100
AcDbEntity
  8
5LA86-GLAS
100
AcDbVertex
100
AcDbPolyFaceMeshVertex
 10
117.6800079345703
 20
722.25
 30
-27.54672050476074
 70
   192
  0
VERTEX
  5
8C5
330
838
100
AcDbEntity
  8
5LA86-GLAS
100
AcDbVertex
100
AcDbPolyFaceMeshVertex
 10
117.6800689697265
 20
0.0000126652339532
 30
-27.54661941528321
 70
   192
  0
VERTEX
  5
8C6
330
838
100
AcDbEntity
  8
5LA86-GLAS
100
AcDbVertex
100
AcDbPolyFaceMeshVertex
 10
122.9114532470703
 20
722.25
 30
-28.93587684631348
 70
   192
  0
VERTEX
  5
8C7
330
838
100
AcDbEntity
  8
5LA86-GLAS
100
AcDbVertex
100
AcDbPolyFaceMeshVertex
 10
122.9115142822265
 20
0.0000129200361698
 30
-28.93577575683594
 70
   192
  0
VERTEX
  5
8C8
330
838
100
AcDbEntity
  8
5LA86-GLAS
100
AcDbVertex
100
AcDbPolyFaceMeshVertex
 10
117.6801300048828
 20
-722.25
 30
-27.54651832580567
 70
   192
  0
VERTEX
  5
8C9
330
838
100
AcDbEntity
  8
5LA86-GLAS
100
AcDbVertex
100
AcDbPolyFaceMeshVertex
 10
122.9115753173828
 20
-722.25
 30
-28.9356746673584
 70
   192
  0
VERTEX
  5
8CA
330
838
100
AcDbEntity
  8
5LA86-GLAS
100
AcDbVertex
100
AcDbPolyFaceMeshVertex
 10
-122.9421310424804
 20
722.25
 30
-28.93588066101074
 70
   192
  0
VERTEX
  5
8CB
330
838
100
AcDbEntity
  8
5LA86-GLAS
100
AcDbVertex
100
AcDbPolyFaceMeshVertex
 10
-116.0127410888672
 20
722.25
 30
-29.27461051940918
 70
   192
  0
VERTEX
  5
8CC
330
838
100
AcDbEntity
  8
5LA86-GLAS
100
AcDbVertex
100
AcDbPolyFaceMeshVertex
 10
-113.6775970458984
 20
722.25
 30
-37.77175903320312
 70
   192
  0
VERTEX
  5
8CD
330
838
100
AcDbEntity
  8
5LA86-GLAS
100
AcDbVertex
100
AcDbPolyFaceMeshVertex
 10
-108.3674545288086
 20
722.25
 30
-35.82327270507813
 70
   192
  0
VERTEX
  5
8CE
330
838
100
AcDbEntity
  8
5LA86-GLAS
100
AcDbVertex
100
AcDbPolyFaceMeshVertex
 10
-102.0784912109375
 20
722.25
 30
-45.81938934326172
 70
   192
  0
VERTEX
  5
8CF
330
838
100
AcDbEntity
  8
5LA86-GLAS
100
AcDbVertex
100
AcDbPolyFaceMeshVertex
 10
-98.54518127441407
 20
722.25
 30
-42.32762908935547
 70
   192
  0
VERTEX
  5
8D0
330
838
100
AcDbEntity
  8
5LA86-GLAS
100
AcDbVertex
100
AcDbPolyFaceMeshVertex
 10
-88.33143615722656
 20
722.25
 30
-52.94375610351562
 70
   192
  0
VERTEX
  5
8D1
330
838
100
AcDbEntity
  8
5LA86-GLAS
100
AcDbVertex
100
AcDbPolyFaceMeshVertex
 10
-86.42313385009765
 20
722.25
 30
-48.5347671508789
 70
   192
  0
VERTEX
  5
8D2
330
838
100
AcDbEntity
  8
5LA86-GLAS
100
AcDbVertex
100
AcDbPolyFaceMeshVertex
 10
-72.80076599121094
 20
722.25
 30
-58.95544052124023
 70
   192
  0
VERTEX
  5
8D3
330
838
100
AcDbEntity
  8
5LA86-GLAS
100
AcDbVertex
100
AcDbPolyFaceMeshVertex
 10
-72.00657653808594
 20
722.25
 30
-54.15583038330078
 70
   192
  0
VERTEX
  5
8D4
330
838
100
AcDbEntity
  8
5LA86-GLAS
100
AcDbVertex
100
AcDbPolyFaceMeshVertex
 10
-55.75945663452149
 20
722.25
 30
-63.75457763671875
 70
   192
  0
VERTEX
  5
8D5
330
838
100
AcDbEntity
  8
5LA86-GLAS
100
AcDbVertex
100
AcDbPolyFaceMeshVertex
 10
-55.46105194091797
 20
722.25
 30
-58.88827133178711
 70
   192
  0
VERTEX
  5
8D6
330
838
100
AcDbEntity
  8
5LA86-GLAS
100
AcDbVertex
100
AcDbPolyFaceMeshVertex
 10
-37.53255844116211
 20
722.25
 30
-67.24357604980468
 70
   192
  0
VERTEX
  5
8D7
330
838
100
AcDbEntity
  8
5LA86-GLAS
100
AcDbVertex
100
AcDbPolyFaceMeshVertex
 10
-37.13028335571289
 20
722.25
 30
-62.44600677490234
 70
   192
  0
VERTEX
  5
8D8
330
838
100
AcDbEntity
  8
5LA86-GLAS
100
AcDbVertex
100
AcDbPolyFaceMeshVertex
 10
-17.52914810180664
 20
722.25
 30
-64.5942153930664
 70
   192
  0
VERTEX
  5
8D9
330
838
100
AcDbEntity
  8
5LA86-GLAS
100
AcDbVertex
100
AcDbPolyFaceMeshVertex
 10
0.3997833430767059
 20
722.25
 30
-70.00010681152343
 70
   192
  0
VERTEX
  5
8DA
330
838
100
AcDbEntity
  8
5LA86-GLAS
100
AcDbVertex
100
AcDbPolyFaceMeshVertex
 10
2.693319082260131
 20
722.25
 30
-65.18266296386719
 70
   192
  0
VERTEX
  5
8DB
330
838
100
AcDbEntity
  8
5LA86-GLAS
100
AcDbVertex
100
AcDbPolyFaceMeshVertex
 10
22.81875038146973
 20
722.25
 30
-64.16909790039063
 70
   192
  0
VERTEX
  5
8DC
330
838
100
AcDbEntity
  8
5LA86-GLAS
100
AcDbVertex
100
AcDbPolyFaceMeshVertex
 10
38.2510986328125
 20
722.25
 30
-67.12982177734375
 70
   192
  0
VERTEX
  5
8DD
330
838
100
AcDbEntity
  8
5LA86-GLAS
100
AcDbVertex
100
AcDbPolyFaceMeshVertex
 10
42.13981246948242
 20
722.25
 30
-61.62602615356445
 70
   192
  0
VERTEX
  5
8DE
330
838
100
AcDbEntity
  8
5LA86-GLAS
100
AcDbVertex
100
AcDbPolyFaceMeshVertex
 10
56.33302688598632
 20
722.25
 30
-63.61158752441406
 70
   192
  0
VERTEX
  5
8DF
330
838
100
AcDbEntity
  8
5LA86-GLAS
100
AcDbVertex
100
AcDbPolyFaceMeshVertex
 10
60.03786849975586
 20
722.25
 30
-57.72907638549805
 70
   192
  0
VERTEX
  5
8E0
330
838
100
AcDbEntity
  8
5LA86-GLAS
100
AcDbVertex
100
AcDbPolyFaceMeshVertex
 10
73.18997192382813
 20
722.25
 30
-58.81541061401367
 70
   192
  0
VERTEX
  5
8E1
330
838
100
AcDbEntity
  8
5LA86-GLAS
100
AcDbVertex
100
AcDbPolyFaceMeshVertex
 10
76.04136657714843
 20
722.25
 30
-52.7302131652832
 70
   192
  0
VERTEX
  5
8E2
330
838
100
AcDbEntity
  8
5LA86-GLAS
100
AcDbVertex
100
AcDbPolyFaceMeshVertex
 10
88.55345916748047
 20
722.25
 30
-52.8300895690918
 70
   192
  0
VERTEX
  5
8E3
330
838
100
AcDbEntity
  8
5LA86-GLAS
100
AcDbVertex
100
AcDbPolyFaceMeshVertex
 10
89.85472869873047
 20
722.25
 30
-46.92324829101562
 70
   192
  0
VERTEX
  5
8E4
330
838
100
AcDbEntity
  8
5LA86-GLAS
100
AcDbVertex
100
AcDbPolyFaceMeshVertex
 10
102.1741790771484
 20
722.25
 30
-45.74317932128906
 70
   192
  0
VERTEX
  5
8E5
330
838
100
AcDbEntity
  8
5LA86-GLAS
100
AcDbVertex
100
AcDbPolyFaceMeshVertex
 10
101.3576202392578
 20
722.25
 30
-40.60968017578125
 70
   192
  0
VERTEX
  5
8E6
330
838
100
AcDbEntity
  8
5LA86-GLAS
100
AcDbVertex
100
AcDbPolyFaceMeshVertex
 10
113.7030944824219
 20
722.25
 30
-37.72504425048828
 70
   192
  0
VERTEX
  5
8E7
330
838
100
AcDbEntity
  8
5LA86-GLAS
100
AcDbVertex
100
AcDbPolyFaceMeshVertex
 10
110.5824890136718
 20
722.25
 30
-34.07063674926758
 70
   192
  0
VERTEX
  5
8E8
330
838
100
AcDbEntity
  8
5LA86-GLAS
100
AcDbVertex
100
AcDbPolyFaceMeshVertex
 10
117.6800079345703
 20
722.25
 30
-27.54672050476074
 70
   192
  0
VERTEX
  5
8E9
330
838
100
AcDbEntity
  8
5LA86-GLAS
100
AcDbVertex
100
AcDbPolyFaceMeshVertex
 10
122.9114532470703
 20
722.25
 30
-28.93587684631348
 70
   192
  0
VERTEX
  5
8EA
330
838
100
AcDbEntity
  8
5LA86-GLAS
100
AcDbFaceRecord
 10
0.0
 20
0.0
 30
0.0
 70
   128
 71
     1
 72
    -2
 73
     3
  0
VERTEX
  5
8EB
330
838
100
AcDbEntity
  8
5LA86-GLAS
100
AcDbFaceRecord
 10
0.0
 20
0.0
 30
0.0
 70
   128
 71
    -3
 72
    -2
 73
     4
  0
VERTEX
  5
8EC
330
838
100
AcDbEntity
  8
5LA86-GLAS
100
AcDbFaceRecord
 10
0.0
 20
0.0
 30
0.0
 70
   128
 71
    -4
 72
     2
 73
    -5
  0
VERTEX
  5
8ED
330
838
100
AcDbEntity
  8
5LA86-GLAS
100
AcDbFaceRecord
 10
0.0
 20
0.0
 30
0.0
 70
   128
 71
    -4
 72
    -5
 73
     6
  0
VERTEX
  5
8EE
330
838
100
AcDbEntity
  8
5LA86-GLAS
100
AcDbFaceRecord
 10
0.0
 20
0.0
 30
0.0
 70
   128
 71
    -6
 72
     5
 73
    -7
  0
VERTEX
  5
8EF
330
838
100
AcDbEntity
  8
5LA86-GLAS
100
AcDbFaceRecord
 10
0.0
 20
0.0
 30
0.0
 70
   128
 71
    -6
 72
    -7
 73
     8
  0
VERTEX
  5
8F0
330
838
100
AcDbEntity
  8
5LA86-GLAS
100
AcDbFaceRecord
 10
0.0
 20
0.0
 30
0.0
 70
   128
 71
    -8
 72
     7
 73
    -9
  0
VERTEX
  5
8F1
330
838
100
AcDbEntity
  8
5LA86-GLAS
100
AcDbFaceRecord
 10
0.0
 20
0.0
 30
0.0
 70
   128
 71
    -8
 72
    -9
 73
    10
  0
VERTEX
  5
8F2
330
838
100
AcDbEntity
  8
5LA86-GLAS
100
AcDbFaceRecord
 10
0.0
 20
0.0
 30
0.0
 70
   128
 71
   -10
 72
     9
 73
   -11
  0
VERTEX
  5
8F3
330
838
100
AcDbEntity
  8
5LA86-GLAS
100
AcDbFaceRecord
 10
0.0
 20
0.0
 30
0.0
 70
   128
 71
   -10
 72
   -11
 73
    12
  0
VERTEX
  5
8F4
330
838
100
AcDbEntity
  8
5LA86-GLAS
100
AcDbFaceRecord
 10
0.0
 20
0.0
 30
0.0
 70
   128
 71
   -12
 72
    11
 73
   -13
  0
VERTEX
  5
8F5
330
838
100
AcDbEntity
  8
5LA86-GLAS
100
AcDbFaceRecord
 10
0.0
 20
0.0
 30
0.0
 70
   128
 71
   -12
 72
   -13
 73
    14
  0
VERTEX
  5
8F6
330
838
100
AcDbEntity
  8
5LA86-GLAS
100
AcDbFaceRecord
 10
0.0
 20
0.0
 30
0.0
 70
   128
 71
   -14
 72
   -13
 73
    15
  0
VERTEX
  5
8F7
330
838
100
AcDbEntity
  8
5LA86-GLAS
100
AcDbFaceRecord
 10
0.0
 20
0.0
 30
0.0
 70
   128
 71
   -15
 72
    13
 73
   -16
  0
VERTEX
  5
8F8
330
838
100
AcDbEntity
  8
5LA86-GLAS
100
AcDbFaceRecord
 10
0.0
 20
0.0
 30
0.0
 70
   128
 71
   -15
 72
   -16
 73
    17
  0
VERTEX
  5
8F9
330
838
100
AcDbEntity
  8
5LA86-GLAS
100
AcDbFaceRecord
 10
0.0
 20
0.0
 30
0.0
 70
   128
 71
   -17
 72
   -16
 73
    18
  0
VERTEX
  5
8FA
330
838
100
AcDbEntity
  8
5LA86-GLAS
100
AcDbFaceRecord
 10
0.0
 20
0.0
 30
0.0
 70
   128
 71
   -18
 72
    16
 73
   -19
  0
VERTEX
  5
8FB
330
838
100
AcDbEntity
  8
5LA86-GLAS
100
AcDbFaceRecord
 10
0.0
 20
0.0
 30
0.0
 70
   128
 71
   -18
 72
   -19
 73
    20
  0
VERTEX
  5
8FC
330
838
100
AcDbEntity
  8
5LA86-GLAS
100
AcDbFaceRecord
 10
0.0
 20
0.0
 30
0.0
 70
   128
 71
   -20
 72
    19
 73
   -21
  0
VERTEX
  5
8FD
330
838
100
AcDbEntity
  8
5LA86-GLAS
100
AcDbFaceRecord
 10
0.0
 20
0.0
 30
0.0
 70
   128
 71
   -20
 72
   -21
 73
    22
  0
VERTEX
  5
8FE
330
838
100
AcDbEntity
  8
5LA86-GLAS
100
AcDbFaceRecord
 10
0.0
 20
0.0
 30
0.0
 70
   128
 71
   -22
 72
    21
 73
   -23
  0
VERTEX
  5
8FF
330
838
100
AcDbEntity
  8
5LA86-GLAS
100
AcDbFaceRecord
 10
0.0
 20
0.0
 30
0.0
 70
   128
 71
   -22
 72
   -23
 73
    24
  0
VERTEX
  5
900
330
838
100
AcDbEntity
  8
5LA86-GLAS
100
AcDbFaceRecord
 10
0.0
 20
0.0
 30
0.0
 70
   128
 71
   -24
 72
    23
 73
   -25
  0
VERTEX
  5
901
330
838
100
AcDbEntity
  8
5LA86-GLAS
100
AcDbFaceRecord
 10
0.0
 20
0.0
 30
0.0
 70
   128
 71
   -24
 72
   -25
 73
    26
  0
VERTEX
  5
902
330
838
100
AcDbEntity
  8
5LA86-GLAS
100
AcDbFaceRecord
 10
0.0
 20
0.0
 30
0.0
 70
   128
 71
   -26
 72
    25
 73
   -27
  0
VERTEX
  5
903
330
838
100
AcDbEntity
  8
5LA86-GLAS
100
AcDbFaceRecord
 10
0.0
 20
0.0
 30
0.0
 70
   128
 71
   -26
 72
   -27
 73
    28
  0
VERTEX
  5
904
330
838
100
AcDbEntity
  8
5LA86-GLAS
100
AcDbFaceRecord
 10
0.0
 20
0.0
 30
0.0
 70
   128
 71
   -28
 72
    27
 73
   -29
  0
VERTEX
  5
905
330
838
100
AcDbEntity
  8
5LA86-GLAS
100
AcDbFaceRecord
 10
0.0
 20
0.0
 30
0.0
 70
   128
 71
   -28
 72
   -29
 73
    30
  0
VERTEX
  5
906
330
838
100
AcDbEntity
  8
5LA86-GLAS
100
AcDbFaceRecord
 10
0.0
 20
0.0
 30
0.0
 70
   128
 71
   -30
 72
   -29
 73
    31
  0
VERTEX
  5
907
330
838
100
AcDbEntity
  8
5LA86-GLAS
100
AcDbFaceRecord
 10
0.0
 20
0.0
 30
0.0
 70
   128
 71
   -31
 72
    29
 73
    32
  0
VERTEX
  5
908
330
838
100
AcDbEntity
  8
5LA86-GLAS
100
AcDbFaceRecord
 10
0.0
 20
0.0
 30
0.0
 70
   128
 71
    33
 72
   -34
 73
   -35
  0
VERTEX
  5
909
330
838
100
AcDbEntity
  8
5LA86-GLAS
100
AcDbFaceRecord
 10
0.0
 20
0.0
 30
0.0
 70
   128
 71
   -35
 72
    34
 73
    36
  0
VERTEX
  5
90A
330
838
100
AcDbEntity
  8
5LA86-GLAS
100
AcDbFaceRecord
 10
0.0
 20
0.0
 30
0.0
 70
   128
 71
    35
 72
   -36
 73
   -37
  0
VERTEX
  5
90B
330
838
100
AcDbEntity
  8
5LA86-GLAS
100
AcDbFaceRecord
 10
0.0
 20
0.0
 30
0.0
 70
   128
 71
   -37
 72
    36
 73
    38
  0
VERTEX
  5
90C
330
838
100
AcDbEntity
  8
5LA86-GLAS
100
AcDbFaceRecord
 10
0.0
 20
0.0
 30
0.0
 70
   128
 71
    37
 72
   -38
 73
   -39
  0
VERTEX
  5
90D
330
838
100
AcDbEntity
  8
5LA86-GLAS
100
AcDbFaceRecord
 10
0.0
 20
0.0
 30
0.0
 70
   128
 71
   -39
 72
    38
 73
    40
  0
VERTEX
  5
90E
330
838
100
AcDbEntity
  8
5LA86-GLAS
100
AcDbFaceRecord
 10
0.0
 20
0.0
 30
0.0
 70
   128
 71
    39
 72
    40
 73
   -41
  0
VERTEX
  5
90F
330
838
100
AcDbEntity
  8
5LA86-GLAS
100
AcDbFaceRecord
 10
0.0
 20
0.0
 30
0.0
 70
   128
 71
   -39
 72
    41
 73
   -42
  0
VERTEX
  5
910
330
838
100
AcDbEntity
  8
5LA86-GLAS
100
AcDbFaceRecord
 10
0.0
 20
0.0
 30
0.0
 70
   128
 71
    42
 72
    41
 73
   -43
  0
VERTEX
  5
911
330
838
100
AcDbEntity
  8
5LA86-GLAS
100
AcDbFaceRecord
 10
0.0
 20
0.0
 30
0.0
 70
   128
 71
   -42
 72
   -43
 73
   -44
  0
VERTEX
  5
912
330
838
100
AcDbEntity
  8
5LA86-GLAS
100
AcDbFaceRecord
 10
0.0
 20
0.0
 30
0.0
 70
   128
 71
   -44
 72
    43
 73
   -45
  0
VERTEX
  5
913
330
838
100
AcDbEntity
  8
5LA86-GLAS
100
AcDbFaceRecord
 10
0.0
 20
0.0
 30
0.0
 70
   128
 71
   -44
 72
   -45
 73
   -46
  0
VERTEX
  5
914
330
838
100
AcDbEntity
  8
5LA86-GLAS
100
AcDbFaceRecord
 10
0.0
 20
0.0
 30
0.0
 70
   128
 71
   -46
 72
    45
 73
   -47
  0
VERTEX
  5
915
330
838
100
AcDbEntity
  8
5LA86-GLAS
100
AcDbFaceRecord
 10
0.0
 20
0.0
 30
0.0
 70
   128
 71
   -46
 72
   -47
 73
   -48
  0
VERTEX
  5
916
330
838
100
AcDbEntity
  8
5LA86-GLAS
100
AcDbFaceRecord
 10
0.0
 20
0.0
 30
0.0
 70
   128
 71
   -48
 72
    47
 73
    49
  0
VERTEX
  5
917
330
838
100
AcDbEntity
  8
5LA86-GLAS
100
AcDbFaceRecord
 10
0.0
 20
0.0
 30
0.0
 70
   128
 71
    48
 72
   -49
 73
   -50
  0
VERTEX
  5
918
330
838
100
AcDbEntity
  8
5LA86-GLAS
100
AcDbFaceRecord
 10
0.0
 20
0.0
 30
0.0
 70
   128
 71
   -50
 72
    49
 73
    51
  0
VERTEX
  5
919
330
838
100
AcDbEntity
  8
5LA86-GLAS
100
AcDbFaceRecord
 10
0.0
 20
0.0
 30
0.0
 70
   128
 71
    50
 72
    51
 73
   -52
  0
VERTEX
  5
91A
330
838
100
AcDbEntity
  8
5LA86-GLAS
100
AcDbFaceRecord
 10
0.0
 20
0.0
 30
0.0
 70
   128
 71
   -50
 72
   -52
 73
   -53
  0
VERTEX
  5
91B
330
838
100
AcDbEntity
  8
5LA86-GLAS
100
AcDbFaceRecord
 10
0.0
 20
0.0
 30
0.0
 70
   128
 71
   -53
 72
    52
 73
   -54
  0
VERTEX
  5
91C
330
838
100
AcDbEntity
  8
5LA86-GLAS
100
AcDbFaceRecord
 10
0.0
 20
0.0
 30
0.0
 70
   128
 71
   -53
 72
   -54
 73
   -55
  0
VERTEX
  5
91D
330
838
100
AcDbEntity
  8
5LA86-GLAS
100
AcDbFaceRecord
 10
0.0
 20
0.0
 30
0.0
 70
   128
 71
   -55
 72
    54
 73
   -56
  0
VERTEX
  5
91E
330
838
100
AcDbEntity
  8
5LA86-GLAS
100
AcDbFaceRecord
 10
0.0
 20
0.0
 30
0.0
 70
   128
 71
   -55
 72
   -56
 73
   -57
  0
VERTEX
  5
91F
330
838
100
AcDbEntity
  8
5LA86-GLAS
100
AcDbFaceRecord
 10
0.0
 20
0.0
 30
0.0
 70
   128
 71
   -57
 72
    56
 73
    58
  0
VERTEX
  5
920
330
838
100
AcDbEntity
  8
5LA86-GLAS
100
AcDbFaceRecord
 10
0.0
 20
0.0
 30
0.0
 70
   128
 71
    57
 72
    58
 73
   -59
  0
VERTEX
  5
921
330
838
100
AcDbEntity
  8
5LA86-GLAS
100
AcDbFaceRecord
 10
0.0
 20
0.0
 30
0.0
 70
   128
 71
   -57
 72
    59
 73
   -60
  0
VERTEX
  5
922
330
838
100
AcDbEntity
  8
5LA86-GLAS
100
AcDbFaceRecord
 10
0.0
 20
0.0
 30
0.0
 70
   128
 71
    60
 72
    59
 73
   -61
  0
VERTEX
  5
923
330
838
100
AcDbEntity
  8
5LA86-GLAS
100
AcDbFaceRecord
 10
0.0
 20
0.0
 30
0.0
 70
   128
 71
   -60
 72
    61
 73
   -62
  0
VERTEX
  5
924
330
838
100
AcDbEntity
  8
5LA86-GLAS
100
AcDbFaceRecord
 10
0.0
 20
0.0
 30
0.0
 70
   128
 71
    62
 72
    61
 73
   -63
  0
VERTEX
  5
925
330
838
100
AcDbEntity
  8
5LA86-GLAS
100
AcDbFaceRecord
 10
0.0
 20
0.0
 30
0.0
 70
   128
 71
   -62
 72
    63
 73
   -64
  0
VERTEX
  5
926
330
838
100
AcDbEntity
  8
5LA86-GLAS
100
AcDbFaceRecord
 10
0.0
 20
0.0
 30
0.0
 70
   128
 71
    64
 72
   -65
 73
   -62
  0
VERTEX
  5
927
330
838
100
AcDbEntity
  8
5LA86-GLAS
100
AcDbFaceRecord
 10
0.0
 20
0.0
 30
0.0
 70
   128
 71
   -62
 72
    65
 73
    66
  0
VERTEX
  5
928
330
838
100
AcDbEntity
  8
5LA86-GLAS
100
AcDbFaceRecord
 10
0.0
 20
0.0
 30
0.0
 70
   128
 71
    62
 72
   -66
 73
   -60
  0
VERTEX
  5
929
330
838
100
AcDbEntity
  8
5LA86-GLAS
100
AcDbFaceRecord
 10
0.0
 20
0.0
 30
0.0
 70
   128
 71
   -60
 72
    66
 73
    67
  0
VERTEX
  5
92A
330
838
100
AcDbEntity
  8
5LA86-GLAS
100
AcDbFaceRecord
 10
0.0
 20
0.0
 30
0.0
 70
   128
 71
    60
 72
   -67
 73
   -57
  0
VERTEX
  5
92B
330
838
100
AcDbEntity
  8
5LA86-GLAS
100
AcDbFaceRecord
 10
0.0
 20
0.0
 30
0.0
 70
   128
 71
   -57
 72
    67
 73
    68
  0
VERTEX
  5
92C
330
838
100
AcDbEntity
  8
5LA86-GLAS
100
AcDbFaceRecord
 10
0.0
 20
0.0
 30
0.0
 70
   128
 71
    57
 72
    68
 73
   -69
  0
VERTEX
  5
92D
330
838
100
AcDbEntity
  8
5LA86-GLAS
100
AcDbFaceRecord
 10
0.0
 20
0.0
 30
0.0
 70
   128
 71
   -57
 72
   -69
 73
   -55
  0
VERTEX
  5
92E
330
838
100
AcDbEntity
  8
5LA86-GLAS
100
AcDbFaceRecord
 10
0.0
 20
0.0
 30
0.0
 70
   128
 71
   -55
 72
    69
 73
   -70
  0
VERTEX
  5
92F
330
838
100
AcDbEntity
  8
5LA86-GLAS
100
AcDbFaceRecord
 10
0.0
 20
0.0
 30
0.0
 70
   128
 71
   -55
 72
   -70
 73
   -53
  0
VERTEX
  5
930
330
838
100
AcDbEntity
  8
5LA86-GLAS
100
AcDbFaceRecord
 10
0.0
 20
0.0
 30
0.0
 70
   128
 71
   -53
 72
    70
 73
   -71
  0
VERTEX
  5
931
330
838
100
AcDbEntity
  8
5LA86-GLAS
100
AcDbFaceRecord
 10
0.0
 20
0.0
 30
0.0
 70
   128
 71
   -53
 72
   -71
 73
   -50
  0
VERTEX
  5
932
330
838
100
AcDbEntity
  8
5LA86-GLAS
100
AcDbFaceRecord
 10
0.0
 20
0.0
 30
0.0
 70
   128
 71
   -50
 72
    71
 73
    72
  0
VERTEX
  5
933
330
838
100
AcDbEntity
  8
5LA86-GLAS
100
AcDbFaceRecord
 10
0.0
 20
0.0
 30
0.0
 70
   128
 71
    50
 72
    72
 73
   -73
  0
VERTEX
  5
934
330
838
100
AcDbEntity
  8
5LA86-GLAS
100
AcDbFaceRecord
 10
0.0
 20
0.0
 30
0.0
 70
   128
 71
   -50
 72
    73
 73
   -48
  0
VERTEX
  5
935
330
838
100
AcDbEntity
  8
5LA86-GLAS
100
AcDbFaceRecord
 10
0.0
 20
0.0
 30
0.0
 70
   128
 71
    48
 72
    73
 73
   -74
  0
VERTEX
  5
936
330
838
100
AcDbEntity
  8
5LA86-GLAS
100
AcDbFaceRecord
 10
0.0
 20
0.0
 30
0.0
 70
   128
 71
   -48
 72
   -74
 73
   -46
  0
VERTEX
  5
937
330
838
100
AcDbEntity
  8
5LA86-GLAS
100
AcDbFaceRecord
 10
0.0
 20
0.0
 30
0.0
 70
   128
 71
   -46
 72
    74
 73
   -75
  0
VERTEX
  5
938
330
838
100
AcDbEntity
  8
5LA86-GLAS
100
AcDbFaceRecord
 10
0.0
 20
0.0
 30
0.0
 70
   128
 71
   -46
 72
   -75
 73
   -44
  0
VERTEX
  5
939
330
838
100
AcDbEntity
  8
5LA86-GLAS
100
AcDbFaceRecord
 10
0.0
 20
0.0
 30
0.0
 70
   128
 71
   -44
 72
    75
 73
   -76
  0
VERTEX
  5
93A
330
838
100
AcDbEntity
  8
5LA86-GLAS
100
AcDbFaceRecord
 10
0.0
 20
0.0
 30
0.0
 70
   128
 71
   -44
 72
   -76
 73
   -42
  0
VERTEX
  5
93B
330
838
100
AcDbEntity
  8
5LA86-GLAS
100
AcDbFaceRecord
 10
0.0
 20
0.0
 30
0.0
 70
   128
 71
   -42
 72
    76
 73
    77
  0
VERTEX
  5
93C
330
838
100
AcDbEntity
  8
5LA86-GLAS
100
AcDbFaceRecord
 10
0.0
 20
0.0
 30
0.0
 70
   128
 71
    42
 72
   -77
 73
   -39
  0
VERTEX
  5
93D
330
838
100
AcDbEntity
  8
5LA86-GLAS
100
AcDbFaceRecord
 10
0.0
 20
0.0
 30
0.0
 70
   128
 71
   -39
 72
    77
 73
    78
  0
VERTEX
  5
93E
330
838
100
AcDbEntity
  8
5LA86-GLAS
100
AcDbFaceRecord
 10
0.0
 20
0.0
 30
0.0
 70
   128
 71
    39
 72
    78
 73
   -79
  0
VERTEX
  5
93F
330
838
100
AcDbEntity
  8
5LA86-GLAS
100
AcDbFaceRecord
 10
0.0
 20
0.0
 30
0.0
 70
   128
 71
   -39
 72
    79
 73
   -37
  0
VERTEX
  5
940
330
838
100
AcDbEntity
  8
5LA86-GLAS
100
AcDbFaceRecord
 10
0.0
 20
0.0
 30
0.0
 70
   128
 71
    37
 72
    79
 73
   -80
  0
VERTEX
  5
941
330
838
100
AcDbEntity
  8
5LA86-GLAS
100
AcDbFaceRecord
 10
0.0
 20
0.0
 30
0.0
 70
   128
 71
   -37
 72
    80
 73
   -35
  0
VERTEX
  5
942
330
838
100
AcDbEntity
  8
5LA86-GLAS
100
AcDbFaceRecord
 10
0.0
 20
0.0
 30
0.0
 70
   128
 71
    35
 72
    80
 73
   -81
  0
VERTEX
  5
943
330
838
100
AcDbEntity
  8
5LA86-GLAS
100
AcDbFaceRecord
 10
0.0
 20
0.0
 30
0.0
 70
   128
 71
   -35
 72
    81
 73
   -33
  0
VERTEX
  5
944
330
838
100
AcDbEntity
  8
5LA86-GLAS
100
AcDbFaceRecord
 10
0.0
 20
0.0
 30
0.0
 70
   128
 71
    82
 72
   -83
 73
    84
  0
VERTEX
  5
945
330
838
100
AcDbEntity
  8
5LA86-GLAS
100
AcDbFaceRecord
 10
0.0
 20
0.0
 30
0.0
 70
   128
 71
   -84
 72
   -83
 73
    85
  0
VERTEX
  5
946
330
838
100
AcDbEntity
  8
5LA86-GLAS
100
AcDbFaceRecord
 10
0.0
 20
0.0
 30
0.0
 70
   128
 71
   -85
 72
    83
 73
   -86
  0
VERTEX
  5
947
330
838
100
AcDbEntity
  8
5LA86-GLAS
100
AcDbFaceRecord
 10
0.0
 20
0.0
 30
0.0
 70
   128
 71
   -85
 72
    86
 73
    87
  0
VERTEX
  5
948
330
838
100
AcDbEntity
  8
5LA86-GLAS
100
AcDbFaceRecord
 10
0.0
 20
0.0
 30
0.0
 70
   128
 71
    88
 72
   -89
 73
   -90
  0
VERTEX
  5
949
330
838
100
AcDbEntity
  8
5LA86-GLAS
100
AcDbFaceRecord
 10
0.0
 20
0.0
 30
0.0
 70
   128
 71
   -90
 72
    89
 73
    91
  0
VERTEX
  5
94A
330
838
100
AcDbEntity
  8
5LA86-GLAS
100
AcDbFaceRecord
 10
0.0
 20
0.0
 30
0.0
 70
   128
 71
    90
 72
   -91
 73
   -92
  0
VERTEX
  5
94B
330
838
100
AcDbEntity
  8
5LA86-GLAS
100
AcDbFaceRecord
 10
0.0
 20
0.0
 30
0.0
 70
   128
 71
   -92
 72
    91
 73
    93
  0
VERTEX
  5
94C
330
838
100
AcDbEntity
  8
5LA86-GLAS
100
AcDbFaceRecord
 10
0.0
 20
0.0
 30
0.0
 70
   128
 71
    92
 72
   -93
 73
   -94
  0
VERTEX
  5
94D
330
838
100
AcDbEntity
  8
5LA86-GLAS
100
AcDbFaceRecord
 10
0.0
 20
0.0
 30
0.0
 70
   128
 71
   -94
 72
    93
 73
    95
  0
VERTEX
  5
94E
330
838
100
AcDbEntity
  8
5LA86-GLAS
100
AcDbFaceRecord
 10
0.0
 20
0.0
 30
0.0
 70
   128
 71
    94
 72
    95
 73
   -96
  0
VERTEX
  5
94F
330
838
100
AcDbEntity
  8
5LA86-GLAS
100
AcDbFaceRecord
 10
0.0
 20
0.0
 30
0.0
 70
   128
 71
   -94
 72
    96
 73
   -97
  0
VERTEX
  5
950
330
838
100
AcDbEntity
  8
5LA86-GLAS
100
AcDbFaceRecord
 10
0.0
 20
0.0
 30
0.0
 70
   128
 71
    97
 72
    96
 73
   -98
  0
VERTEX
  5
951
330
838
100
AcDbEntity
  8
5LA86-GLAS
100
AcDbFaceRecord
 10
0.0
 20
0.0
 30
0.0
 70
   128
 71
   -97
 72
   -98
 73
   -99
  0
VERTEX
  5
952
330
838
100
AcDbEntity
  8
5LA86-GLAS
100
AcDbFaceRecord
 10
0.0
 20
0.0
 30
0.0
 70
   128
 71
   -99
 72
    98
 73
   100
  0
VERTEX
  5
953
330
838
100
AcDbEntity
  8
5LA86-GLAS
100
AcDbFaceRecord
 10
0.0
 20
0.0
 30
0.0
 70
   128
 71
   101
 72
   100
 73
   102
  0
VERTEX
  5
954
330
838
100
AcDbEntity
  8
5LA86-GLAS
100
AcDbFaceRecord
 10
0.0
 20
0.0
 30
0.0
 70
   128
 71
   103
 72
   102
 73
  -104
  0
VERTEX
  5
955
330
838
100
AcDbEntity
  8
5LA86-GLAS
100
AcDbFaceRecord
 10
0.0
 20
0.0
 30
0.0
 70
   128
 71
   105
 72
   106
 73
   107
  0
VERTEX
  5
956
330
838
100
AcDbEntity
  8
5LA86-GLAS
100
AcDbFaceRecord
 10
0.0
 20
0.0
 30
0.0
 70
   128
 71
   107
 72
  -108
 73
   109
  0
VERTEX
  5
957
330
838
100
AcDbEntity
  8
5LA86-GLAS
100
AcDbFaceRecord
 10
0.0
 20
0.0
 30
0.0
 70
   128
 71
  -109
 72
  -110
 73
  -111
  0
VERTEX
  5
958
330
838
100
AcDbEntity
  8
5LA86-GLAS
100
AcDbFaceRecord
 10
0.0
 20
0.0
 30
0.0
 70
   128
 71
  -109
 72
  -111
 73
   112
  0
VERTEX
  5
959
330
838
100
AcDbEntity
  8
5LA86-GLAS
100
AcDbFaceRecord
 10
0.0
 20
0.0
 30
0.0
 70
   128
 71
  -112
 72
  -111
 73
  -113
  0
VERTEX
  5
95A
330
838
100
AcDbEntity
  8
5LA86-GLAS
100
AcDbFaceRecord
 10
0.0
 20
0.0
 30
0.0
 70
   128
 71
  -112
 72
   113
 73
   114
  0
VERTEX
  5
95B
330
838
100
AcDbEntity
  8
5LA86-GLAS
100
AcDbFaceRecord
 10
0.0
 20
0.0
 30
0.0
 70
   128
 71
   114
 72
  -113
 73
  -115
  0
VERTEX
  5
95C
330
838
100
AcDbEntity
  8
5LA86-GLAS
100
AcDbFaceRecord
 10
0.0
 20
0.0
 30
0.0
 70
   128
 71
  -114
 72
   115
 73
   116
  0
VERTEX
  5
95D
330
838
100
AcDbEntity
  8
5LA86-GLAS
100
AcDbFaceRecord
 10
0.0
 20
0.0
 30
0.0
 70
   128
 71
   116
 72
  -115
 73
  -117
  0
VERTEX
  5
95E
330
838
100
AcDbEntity
  8
5LA86-GLAS
100
AcDbFaceRecord
 10
0.0
 20
0.0
 30
0.0
 70
   128
 71
  -116
 72
   117
 73
   118
  0
VERTEX
  5
95F
330
838
100
AcDbEntity
  8
5LA86-GLAS
100
AcDbFaceRecord
 10
0.0
 20
0.0
 30
0.0
 70
   128
 71
   118
 72
  -117
 73
  -119
  0
VERTEX
  5
960
330
838
100
AcDbEntity
  8
5LA86-GLAS
100
AcDbFaceRecord
 10
0.0
 20
0.0
 30
0.0
 70
   128
 71
  -118
 72
   119
 73
   120
  0
VERTEX
  5
961
330
838
100
AcDbEntity
  8
5LA86-GLAS
100
AcDbFaceRecord
 10
0.0
 20
0.0
 30
0.0
 70
   128
 71
   102
 72
   121
 73
   122
  0
VERTEX
  5
962
330
838
100
AcDbEntity
  8
5LA86-GLAS
100
AcDbFaceRecord
 10
0.0
 20
0.0
 30
0.0
 70
   128
 71
   121
 72
  -123
 73
   124
  0
VERTEX
  5
963
330
838
100
AcDbEntity
  8
5LA86-GLAS
100
AcDbFaceRecord
 10
0.0
 20
0.0
 30
0.0
 70
   128
 71
  -125
 72
  -123
 73
  -111
  0
VERTEX
  5
964
330
838
100
AcDbEntity
  8
5LA86-GLAS
100
AcDbFaceRecord
 10
0.0
 20
0.0
 30
0.0
 70
   128
 71
   123
 72
  -126
 73
  -111
  0
VERTEX
  5
965
330
838
100
AcDbEntity
  8
5LA86-GLAS
100
AcDbFaceRecord
 10
0.0
 20
0.0
 30
0.0
 70
   128
 71
  -111
 72
  -126
 73
  -113
  0
VERTEX
  5
966
330
838
100
AcDbEntity
  8
5LA86-GLAS
100
AcDbFaceRecord
 10
0.0
 20
0.0
 30
0.0
 70
   128
 71
   126
 72
   127
 73
  -113
  0
VERTEX
  5
967
330
838
100
AcDbEntity
  8
5LA86-GLAS
100
AcDbFaceRecord
 10
0.0
 20
0.0
 30
0.0
 70
   128
 71
   113
 72
  -127
 73
  -115
  0
VERTEX
  5
968
330
838
100
AcDbEntity
  8
5LA86-GLAS
100
AcDbFaceRecord
 10
0.0
 20
0.0
 30
0.0
 70
   128
 71
   127
 72
   128
 73
  -115
  0
VERTEX
  5
969
330
838
100
AcDbEntity
  8
5LA86-GLAS
100
AcDbFaceRecord
 10
0.0
 20
0.0
 30
0.0
 70
   128
 71
   115
 72
  -128
 73
  -117
  0
VERTEX
  5
96A
330
838
100
AcDbEntity
  8
5LA86-GLAS
100
AcDbFaceRecord
 10
0.0
 20
0.0
 30
0.0
 70
   128
 71
   128
 72
   129
 73
  -117
  0
VERTEX
  5
96B
330
838
100
AcDbEntity
  8
5LA86-GLAS
100
AcDbFaceRecord
 10
0.0
 20
0.0
 30
0.0
 70
   128
 71
   117
 72
  -129
 73
  -119
  0
VERTEX
  5
96C
330
838
100
AcDbEntity
  8
5LA86-GLAS
100
AcDbFaceRecord
 10
0.0
 20
0.0
 30
0.0
 70
   128
 71
   129
 72
   130
 73
  -119
  0
VERTEX
  5
96D
330
838
100
AcDbEntity
  8
5LA86-GLAS
100
AcDbFaceRecord
 10
0.0
 20
0.0
 30
0.0
 70
   128
 71
   104
 72
   105
 73
  -131
  0
VERTEX
  5
96E
330
838
100
AcDbEntity
  8
5LA86-GLAS
100
AcDbFaceRecord
 10
0.0
 20
0.0
 30
0.0
 70
   128
 71
   132
 72
   105
 73
   133
  0
VERTEX
  5
96F
330
838
100
AcDbEntity
  8
5LA86-GLAS
100
AcDbFaceRecord
 10
0.0
 20
0.0
 30
0.0
 70
   128
 71
    99
 72
   133
 73
  -134
  0
VERTEX
  5
970
330
838
100
AcDbEntity
  8
5LA86-GLAS
100
AcDbFaceRecord
 10
0.0
 20
0.0
 30
0.0
 70
   128
 71
   -99
 72
  -134
 73
   -97
  0
VERTEX
  5
971
330
838
100
AcDbEntity
  8
5LA86-GLAS
100
AcDbFaceRecord
 10
0.0
 20
0.0
 30
0.0
 70
   128
 71
   -97
 72
   134
 73
   135
  0
VERTEX
  5
972
330
838
100
AcDbEntity
  8
5LA86-GLAS
100
AcDbFaceRecord
 10
0.0
 20
0.0
 30
0.0
 70
   128
 71
    97
 72
  -135
 73
   -94
  0
VERTEX
  5
973
330
838
100
AcDbEntity
  8
5LA86-GLAS
100
AcDbFaceRecord
 10
0.0
 20
0.0
 30
0.0
 70
   128
 71
   -94
 72
   135
 73
   136
  0
VERTEX
  5
974
330
838
100
AcDbEntity
  8
5LA86-GLAS
100
AcDbFaceRecord
 10
0.0
 20
0.0
 30
0.0
 70
   128
 71
    94
 72
   136
 73
  -137
  0
VERTEX
  5
975
330
838
100
AcDbEntity
  8
5LA86-GLAS
100
AcDbFaceRecord
 10
0.0
 20
0.0
 30
0.0
 70
   128
 71
   -94
 72
   137
 73
   -92
  0
VERTEX
  5
976
330
838
100
AcDbEntity
  8
5LA86-GLAS
100
AcDbFaceRecord
 10
0.0
 20
0.0
 30
0.0
 70
   128
 71
    92
 72
   137
 73
  -138
  0
VERTEX
  5
977
330
838
100
AcDbEntity
  8
5LA86-GLAS
100
AcDbFaceRecord
 10
0.0
 20
0.0
 30
0.0
 70
   128
 71
   -92
 72
   138
 73
   -90
  0
VERTEX
  5
978
330
838
100
AcDbEntity
  8
5LA86-GLAS
100
AcDbFaceRecord
 10
0.0
 20
0.0
 30
0.0
 70
   128
 71
    90
 72
   138
 73
  -139
  0
VERTEX
  5
979
330
838
100
AcDbEntity
  8
5LA86-GLAS
100
AcDbFaceRecord
 10
0.0
 20
0.0
 30
0.0
 70
   128
 71
   -90
 72
   139
 73
   -88
  0
VERTEX
  5
97A
330
838
100
AcDbEntity
  8
5LA86-GLAS
100
AcDbFaceRecord
 10
0.0
 20
0.0
 30
0.0
 70
   128
 71
   140
 72
  -141
 73
   142
  0
VERTEX
  5
97B
330
838
100
AcDbEntity
  8
5LA86-GLAS
100
AcDbFaceRecord
 10
0.0
 20
0.0
 30
0.0
 70
   128
 71
  -142
 72
  -141
 73
   143
  0
VERTEX
  5
97C
330
838
100
AcDbEntity
  8
5LA86-GLAS
100
AcDbFaceRecord
 10
0.0
 20
0.0
 30
0.0
 70
   128
 71
  -143
 72
   141
 73
  -144
  0
VERTEX
  5
97D
330
838
100
AcDbEntity
  8
5LA86-GLAS
100
AcDbFaceRecord
 10
0.0
 20
0.0
 30
0.0
 70
   128
 71
  -143
 72
   144
 73
   145
  0
VERTEX
  5
97E
330
838
100
AcDbEntity
  8
5LA86-GLAS
100
AcDbFaceRecord
 10
0.0
 20
0.0
 30
0.0
 70
   128
 71
   146
 72
  -147
 73
   148
  0
VERTEX
  5
97F
330
838
100
AcDbEntity
  8
5LA86-GLAS
100
AcDbFaceRecord
 10
0.0
 20
0.0
 30
0.0
 70
   128
 71
  -148
 72
   147
 73
  -149
  0
VERTEX
  5
980
330
838
100
AcDbEntity
  8
5LA86-GLAS
100
AcDbFaceRecord
 10
0.0
 20
0.0
 30
0.0
 70
   128
 71
  -148
 72
  -149
 73
   150
  0
VERTEX
  5
981
330
838
100
AcDbEntity
  8
5LA86-GLAS
100
AcDbFaceRecord
 10
0.0
 20
0.0
 30
0.0
 70
   128
 71
  -150
 72
   149
 73
  -151
  0
VERTEX
  5
982
330
838
100
AcDbEntity
  8
5LA86-GLAS
100
AcDbFaceRecord
 10
0.0
 20
0.0
 30
0.0
 70
   128
 71
  -150
 72
  -151
 73
   152
  0
VERTEX
  5
983
330
838
100
AcDbEntity
  8
5LA86-GLAS
100
AcDbFaceRecord
 10
0.0
 20
0.0
 30
0.0
 70
   128
 71
  -152
 72
   151
 73
  -153
  0
VERTEX
  5
984
330
838
100
AcDbEntity
  8
5LA86-GLAS
100
AcDbFaceRecord
 10
0.0
 20
0.0
 30
0.0
 70
   128
 71
  -152
 72
  -153
 73
   154
  0
VERTEX
  5
985
330
838
100
AcDbEntity
  8
5LA86-GLAS
100
AcDbFaceRecord
 10
0.0
 20
0.0
 30
0.0
 70
   128
 71
  -154
 72
   153
 73
  -155
  0
VERTEX
  5
986
330
838
100
AcDbEntity
  8
5LA86-GLAS
100
AcDbFaceRecord
 10
0.0
 20
0.0
 30
0.0
 70
   128
 71
  -154
 72
  -155
 73
   156
  0
VERTEX
  5
987
330
838
100
AcDbEntity
  8
5LA86-GLAS
100
AcDbFaceRecord
 10
0.0
 20
0.0
 30
0.0
 70
   128
 71
  -156
 72
   155
 73
  -157
  0
VERTEX
  5
988
330
838
100
AcDbEntity
  8
5LA86-GLAS
100
AcDbFaceRecord
 10
0.0
 20
0.0
 30
0.0
 70
   128
 71
  -156
 72
  -157
 73
   158
  0
VERTEX
  5
989
330
838
100
AcDbEntity
  8
5LA86-GLAS
100
AcDbFaceRecord
 10
0.0
 20
0.0
 30
0.0
 70
   128
 71
  -158
 72
   157
 73
  -159
  0
VERTEX
  5
98A
330
838
100
AcDbEntity
  8
5LA86-GLAS
100
AcDbFaceRecord
 10
0.0
 20
0.0
 30
0.0
 70
   128
 71
  -158
 72
   159
 73
  -160
  0
VERTEX
  5
98B
330
838
100
AcDbEntity
  8
5LA86-GLAS
100
AcDbFaceRecord
 10
0.0
 20
0.0
 30
0.0
 70
   128
 71
  -158
 72
  -160
 73
   161
  0
VERTEX
  5
98C
330
838
100
AcDbEntity
  8
5LA86-GLAS
100
AcDbFaceRecord
 10
0.0
 20
0.0
 30
0.0
 70
   128
 71
  -161
 72
   160
 73
  -162
  0
VERTEX
  5
98D
330
838
100
AcDbEntity
  8
5LA86-GLAS
100
AcDbFaceRecord
 10
0.0
 20
0.0
 30
0.0
 70
   128
 71
  -161
 72
   162
 73
  -163
  0
VERTEX
  5
98E
330
838
100
AcDbEntity
  8
5LA86-GLAS
100
AcDbFaceRecord
 10
0.0
 20
0.0
 30
0.0
 70
   128
 71
  -161
 72
  -163
 73
   164
  0
VERTEX
  5
98F
330
838
100
AcDbEntity
  8
5LA86-GLAS
100
AcDbFaceRecord
 10
0.0
 20
0.0
 30
0.0
 70
   128
 71
  -164
 72
   163
 73
  -165
  0
VERTEX
  5
990
330
838
100
AcDbEntity
  8
5LA86-GLAS
100
AcDbFaceRecord
 10
0.0
 20
0.0
 30
0.0
 70
   128
 71
  -164
 72
  -165
 73
   166
  0
VERTEX
  5
991
330
838
100
AcDbEntity
  8
5LA86-GLAS
100
AcDbFaceRecord
 10
0.0
 20
0.0
 30
0.0
 70
   128
 71
  -166
 72
   165
 73
  -167
  0
VERTEX
  5
992
330
838
100
AcDbEntity
  8
5LA86-GLAS
100
AcDbFaceRecord
 10
0.0
 20
0.0
 30
0.0
 70
   128
 71
  -166
 72
  -167
 73
   168
  0
VERTEX
  5
993
330
838
100
AcDbEntity
  8
5LA86-GLAS
100
AcDbFaceRecord
 10
0.0
 20
0.0
 30
0.0
 70
   128
 71
  -168
 72
   167
 73
  -169
  0
VERTEX
  5
994
330
838
100
AcDbEntity
  8
5LA86-GLAS
100
AcDbFaceRecord
 10
0.0
 20
0.0
 30
0.0
 70
   128
 71
  -168
 72
  -169
 73
   170
  0
VERTEX
  5
995
330
838
100
AcDbEntity
  8
5LA86-GLAS
100
AcDbFaceRecord
 10
0.0
 20
0.0
 30
0.0
 70
   128
 71
  -170
 72
   169
 73
  -171
  0
VERTEX
  5
996
330
838
100
AcDbEntity
  8
5LA86-GLAS
100
AcDbFaceRecord
 10
0.0
 20
0.0
 30
0.0
 70
   128
 71
  -170
 72
  -171
 73
   172
  0
VERTEX
  5
997
330
838
100
AcDbEntity
  8
5LA86-GLAS
100
AcDbFaceRecord
 10
0.0
 20
0.0
 30
0.0
 70
   128
 71
  -172
 72
   171
 73
  -173
  0
VERTEX
  5
998
330
838
100
AcDbEntity
  8
5LA86-GLAS
100
AcDbFaceRecord
 10
0.0
 20
0.0
 30
0.0
 70
   128
 71
  -172
 72
  -173
 73
   174
  0
VERTEX
  5
999
330
838
100
AcDbEntity
  8
5LA86-GLAS
100
AcDbFaceRecord
 10
0.0
 20
0.0
 30
0.0
 70
   128
 71
  -174
 72
   173
 73
  -175
  0
VERTEX
  5
99A
330
838
100
AcDbEntity
  8
5LA86-GLAS
100
AcDbFaceRecord
 10
0.0
 20
0.0
 30
0.0
 70
   128
 71
  -174
 72
   175
 73
  -176
  0
VERTEX
  5
99B
330
838
100
AcDbEntity
  8
5LA86-GLAS
100
AcDbFaceRecord
 10
0.0
 20
0.0
 30
0.0
 70
   128
 71
   176
 72
   177
 73
  -174
  0
SEQEND
  5
99C
330
838
100
AcDbEntity
  8
5LA86-GLAS
  0
INSERT
  5
99D
330
1F
100
AcDbEntity
  8
AM_0
100
AcDbBlockReference
 66
     1
  2
RM_SDB
 10
0.0
 20
0.0
 30
0.0
1001
AVE_MATERIAL
1002
{
1000
Si71 Glas opal_5
1000
2
1000

1002
{
1002
}
1002
{
1070
    39
1002
{
1002
{
1010
1.0
1020
1.0
1030
1.0
1002
}
1040
1.0
1000

1040
0.0
1002
{
1002
}
1040
0.0
1002
{
1002
}
1040
0.0
1002
}
1002
{
1002
{
1010
1.0
1020
1.0
1030
1.0
1002
}
1040
1.0
1000

1040
0.0
1002
{
1002
}
1040
0.0
1002
{
1002
}
1040
0.0
1002
}
1002
{
1002
{
1010
0.4980392158031464
1020
0.4980392158031464
1030
0.4980392158031464
1002
}
1040
1.0
1000

1040
0.0
1002
{
1002
}
1040
0.0
1002
{
1002
}
1040
0.0
1002
}
1002
{
1070
     0
1002
{
1070
     1
1002
{
1040
1.0
1040
1.0
1000

1040
0.0
1002
{
1002
}
1040
0.0
1002
{
1002
}
1040
0.0
1002
}
1002
}
1040
0.0
1040
0.0
1040
0.0
1002
}
1002
{
1040
0.0
1040
0.0
1000

1040
0.0
1002
{
1002
}
1040
0.0
1002
{
1002
}
1040
0.0
1002
}
1002
{
1040
1.0
1040
1.0
1000

1040
0.0
1002
{
1002
}
1040
0.0
1002
{
1002
}
1040
0.0
1002
}
1002
{
1070
     0
1040
0.0
1002
{
1002
}
1040
0.0
1002
{
1002
}
1040
0.0
1002
}
1002
{
1040
0.0
1002
{
1002
{
1010
0.0
1020
0.0
1030
0.0
1002
}
1040
0.0
1000

1040
0.0
1002
{
1002
}
1040
0.0
1002
{
1002
}
1040
0.0
1002
}
1002
}
1002
{
1002
{
1070
     1
1002
{
1040
0.0
1040
1.0
1000

1040
0.0
1002
{
1002
}
1040
0.0
1002
{
1002
}
1040
0.0
1002
}
1002
}
1040
0.0
1002
{
1002
}
1010
0.0
1020
0.0
1030
0.0
1010
0.0
1020
0.0
1030
0.0
1010
0.0
1020
0.0
1030
0.0
1070
     0
1002
}
1002
{
1002
{
1040
0.0
1040
0.0
1002
{
1070
     0
1002
}
1002
}
1070
     0
1040
0.0
1002
{
1002
}
1002
}
1002
{
1002
}
1002
}
1002
{
1071
        0
1070
     3
1070
     0
1002
{
1070
     2
1070
     1
1070
     0
1040
0.0
1002
}
1070
     0
1070
     0
1002
{
1002
}
1002
}
1002
{
1040
0.0
1040
0.0
1040
0.0
1040
0.0
1040
0.0
1040
0.0
1040
0.0
1040
0.0
1002
}
1000
9BF
1002
}
  0
ATTRIB
  5
99E
330
99D
100
AcDbEntity
  8
AM_0
100
AcDbText
 10
0.0
 20
0.0
 30
0.0
 40
0.2
  1
Si71 Glas opal_5
100
AcDbAttribute
  2
NAME
 70
     1
  0
ATTRIB
  5
99F
330
99D
100
AcDbEntity
  8
AM_0
100
AcDbText
 10
0.0
 20
0.0
 30
0.0
 40
0.2
  1

100
AcDbAttribute
  2
ACADCOLOR
 70
     1
  0
ATTRIB
  5
9A0
330
99D
100
AcDbEntity
  8
AM_0
100
AcDbText
 10
0.0
 20
0.0
 30
0.0
 40
0.2
  1
1.0000,1.0000,1.0000
100
AcDbAttribute
  2
COLOR
 70
     1
  0
ATTRIB
  5
9A1
330
99D
100
AcDbEntity
  8
AM_0
100
AcDbText
 10
0.0
 20
0.0
 30
0.0
 40
0.2
  1
1.0,1.0,1.0
100
AcDbAttribute
  2
OPACITY
 70
     1
  0
ATTRIB
  5
9A2
330
99D
100
AcDbEntity
  8
AM_0
100
AcDbText
 10
0.0
 20
0.0
 30
0.0
 40
0.2
  1
("nullsurf" "")
100
AcDbAttribute
  2
SURFACE
 70
     1
  0
ATTRIB
  5
9A3
330
99D
100
AcDbEntity
  8
AM_0
100
AcDbText
 10
0.0
 20
0.0
 30
0.0
 40
0.2
  1
(11 "Ka" "1")(11 "Kd" "1")(11 "Ks" "1")(11 "roughness" "1")
100
AcDbAttribute
  2
SURF1
 70
     1
  0
ATTRIB
  5
9A4
330
99D
100
AcDbEntity
  8
AM_0
100
AcDbText
 10
0.0
 20
0.0
 30
0.0
 40
0.2
  1

100
AcDbAttribute
  2
SURF2
 70
     1
  0
ATTRIB
  5
9A5
330
99D
100
AcDbEntity
  8
AM_0
100
AcDbText
 10
0.0
 20
0.0
 30
0.0
 40
0.2
  1

100
AcDbAttribute
  2
SURF3
 70
     1
  0
ATTRIB
  5
9A6
330
99D
100
AcDbEntity
  8
AM_0
100
AcDbText
 10
0.0
 20
0.0
 30
0.0
 40
0.2
  1

100
AcDbAttribute
  2
SURF4
 70
     1
  0
ATTRIB
  5
9A7
330
99D
100
AcDbEntity
  8
AM_0
100
AcDbText
 10
0.0
 20
0.0
 30
0.0
 40
0.2
  1
-1.0
100
AcDbAttribute
  2
SHADINGRATE
 70
     1
  0
ATTRIB
  5
9A8
330
99D
100
AcDbEntity
  8
AM_0
100
AcDbText
 10
0.0
 20
0.0
 30
0.0
 40
0.2
  1
("nulldisp" "")
100
AcDbAttribute
  2
DISPLACEMENT
 70
     1
  0
ATTRIB
  5
9A9
330
99D
100
AcDbEntity
  8
AM_0
100
AcDbText
 10
0.0
 20
0.0
 30
0.0
 40
0.2
  1

100
AcDbAttribute
  2
DISP1
 70
     1
  0
ATTRIB
  5
9AA
330
99D
100
AcDbEntity
  8
AM_0
100
AcDbText
 10
0.0
 20
0.0
 30
0.0
 40
0.2
  1

100
AcDbAttribute
  2
DISP2
 70
     1
  0
ATTRIB
  5
9AB
330
99D
100
AcDbEntity
  8
AM_0
100
AcDbText
 10
0.0
 20
0.0
 30
0.0
 40
0.2
  1

100
AcDbAttribute
  2
DISP3
 70
     1
  0
ATTRIB
  5
9AC
330
99D
100
AcDbEntity
  8
AM_0
100
AcDbText
 10
0.0
 20
0.0
 30
0.0
 40
0.2
  1

100
AcDbAttribute
  2
DISP4
 70
     1
  0
ATTRIB
  5
9AD
330
99D
100
AcDbEntity
  8
AM_0
100
AcDbText
 10
0.0
 20
0.0
 30
0.0
 40
0.2
  1
0.0
100
AcDbAttribute
  2
DBOUND
 70
     1
  0
ATTRIB
  5
9AE
330
99D
100
AcDbEntity
  8
AM_0
100
AcDbText
 10
0.0
 20
0.0
 30
0.0
 40
0.2
  1
0
100
AcDbAttribute
  2
SMOOTH
 70
     1
  0
ATTRIB
  5
9AF
330
99D
100
AcDbEntity
  8
AM_0
100
AcDbText
 10
0.0
 20
0.0
 30
0.0
 40
0.2
  1
("" "")
100
AcDbAttribute
  2
ATMOSHPERE
 70
     1
  0
ATTRIB
  5
9B0
330
99D
100
AcDbEntity
  8
AM_0
100
AcDbText
 10
0.0
 20
0.0
 30
0.0
 40
0.2
  1

100
AcDbAttribute
  2
ATMO1
 70
     1
  0
ATTRIB
  5
9B1
330
99D
100
AcDbEntity
  8
AM_0
100
AcDbText
 10
0.0
 20
0.0
 30
0.0
 40
0.2
  1

100
AcDbAttribute
  2
ATMO2
 70
     1
  0
ATTRIB
  5
9B2
330
99D
100
AcDbEntity
  8
AM_0
100
AcDbText
 10
0.0
 20
0.0
 30
0.0
 40
0.2
  1

100
AcDbAttribute
  2
ATMO3
 70
     1
  0
ATTRIB
  5
9B3
330
99D
100
AcDbEntity
  8
AM_0
100
AcDbText
 10
0.0
 20
0.0
 30
0.0
 40
0.2
  1

100
AcDbAttribute
  2
ATMO4
 70
     1
  0
ATTRIB
  5
9B4
330
99D
100
AcDbEntity
  8
AM_0
100
AcDbText
 10
0.0
 20
0.0
 30
0.0
 40
0.2
  1
0.0 0.0 1.0 0.0 0.0 1.0 1.0 1.0
100
AcDbAttribute
  2
TCCORD
 70
     1
  0
SEQEND
  5
9B5
330
99D
100
AcDbEntity
  8
AM_0
  0
VIEWPORT
  5
130
330
23
100
AcDbEntity
 67
     1
  8
0
100
AcDbViewport
 10
588.6812744140625
 20
414.7062501907348
 30
0.0
 40
1639.514165067178
 41
889.778
 68
     1
 69
     1
 12
588.6812744140625
 22
414.7062501907348
 13
0.0
 23
0.0
 14
10.0
 24
10.0
 15
10.0
 25
10.0
 16
0.0
 26
0.0
 36
1.0
 17
0.0
 27
0.0
 37
0.0
 42
50.0
 43
0.0
 44
0.0
 45
889.778
 50
0.0
 51
0.0
 72
   100
 90
    32800
  1

281
     0
 71
     1
 74
     0
110
0.0
120
0.0
130
0.0
111
1.0
121
0.0
131
0.0
112
0.0
122
1.0
132
0.0
 79
     0
146
0.0
170
     0
  0
ENDSEC
  0
SECTION
  2
OBJECTS
  0
DICTIONARY
  5
C
330
0
100
AcDbDictionary
281
     1
  3
ACAD_COLOR
350
415
  3
ACAD_GROUP
350
D
  3
ACAD_LAYOUT
350
1A
  3
ACAD_MATERIAL
350
414
  3
ACAD_MLEADERSTYLE
350
50F
  3
ACAD_MLINESTYLE
350
17
  3
ACAD_PLOTSETTINGS
350
19
  3
ACAD_PLOTSTYLENAME
350
E
  3
ACAD_SCALELIST
350
4ED
  3
ACAD_TABLESTYLE
350
4EB
  3
ACAD_VISUALSTYLE
350
4DA
  3
ACDB_RECOMPOSE_DATA
350
9D4
  3
AcDbVariableDictionary
350
32
  3
AcmDictionary
350
4D
  3
AMG
350
3F
  3
AMGSNAPSETTINGS
350
64
  3
ASE_INDEX_DICTIONARY
350
3DA
  3
AVE_ACITABLE
350
9B7
  0
DICTIONARY
  5
9C8
330
10
100
AcDbDictionary
280
     1
281
     1
  3
ADSK_XREC_LAYER_RECONCILED
360
9C9
  0
DICTIONARY
  5
9CA
330
55
100
AcDbDictionary
280
     1
281
     1
  3
ADSK_XREC_LAYER_RECONCILED
360
9CB
  0
DICTIONARY
  5
9CC
330
538
100
AcDbDictionary
280
     1
281
     1
  3
ADSK_XREC_LAYER_RECONCILED
360
9CD
  0
DICTIONARY
  5
9CE
330
550
100
AcDbDictionary
280
     1
281
     1
  3
ADSK_XREC_LAYER_RECONCILED
360
9CF
  0
DICTIONARY
  5
9D0
330
837
100
AcDbDictionary
280
     1
281
     1
  3
ADSK_XREC_LAYER_RECONCILED
360
9D1
  0
DICTIONARY
  5
7C
330
1F
100
AcDbDictionary
280
     1
281
     1
  0
DICTIONARY
  5
415
102
{ACAD_REACTORS
330
C
102
}
330
C
100
AcDbDictionary
281
     1
  0
DICTIONARY
  5
D
102
{ACAD_REACTORS
330
C
102
}
330
C
100
AcDbDictionary
281
     1
  0
DICTIONARY
  5
1A
102
{ACAD_REACTORS
330
C
102
}
330
C
100
AcDbDictionary
281
     1
  3
Layout1
350
1E
  3
Layout2
350
26
  3
Model
350
22
  0
DICTIONARY
  5
414
102
{ACAD_REACTORS
330
C
102
}
330
C
100
AcDbDictionary
281
     1
  3
ByBlock
350
4CA
  3
ByLayer
350
4C2
  3
Global
350
4D2
  3
Si05 Siteco Eise
350
9B6
  3
Si71 Glas opal_5
350
9BF
  0
DICTIONARY
  5
50F
102
{ACAD_REACTORS
330
C
102
}
330
C
100
AcDbDictionary
281
     1
  3
Standard
350
510
  0
DICTIONARY
  5
17
102
{ACAD_REACTORS
330
C
102
}
330
C
100
AcDbDictionary
281
     1
  3
Standard
350
18
  0
DICTIONARY
  5
19
102
{ACAD_REACTORS
330
C
102
}
330
C
100
AcDbDictionary
281
     1
  0
ACDBDICTIONARYWDFLT
  5
E
102
{ACAD_REACTORS
330
C
102
}
330
C
100
AcDbDictionary
281
     1
  3
Normal
350
F
100
AcDbDictionaryWithDefault
340
F
  0
DICTIONARY
  5
4ED
102
{ACAD_REACTORS
330
C
102
}
330
C
100
AcDbDictionary
281
     1
  3
A0
350
4EE
  3
A1
350
4EF
  3
A2
350
4F0
  3
A3
350
4F1
  3
A4
350
4F2
  3
A5
350
4F3
  3
A6
350
4F4
  3
A7
350
4F5
  3
A8
350
4F6
  3
A9
350
4F7
  3
B0
350
4F8
  3
B1
350
4F9
  3
B2
350
4FA
  3
B3
350
4FB
  3
B4
350
4FC
  3
B5
350
4FD
  3
B6
350
4FE
  3
B7
350
4FF
  3
B8
350
500
  3
B9
350
501
  3
C0
350
502
  3
C1
350
503
  3
C2
350
504
  3
C3
350
505
  3
C4
350
506
  3
C5
350
507
  3
C6
350
508
  3
C7
350
509
  3
C8
350
50A
  3
C9
350
50B
  3
D0
350
50C
  3
D1
350
50D
  3
D2
350
50E
  0
DICTIONARY
  5
4EB
102
{ACAD_REACTORS
330
C
102
}
330
C
100
AcDbDictionary
281
     1
  3
Standard
350
4EC
  0
DICTIONARY
  5
4DA
102
{ACAD_REACTORS
330
C
102
}
330
C
100
AcDbDictionary
281
     1
  3
2dWireframe
350
4E0
  3
3D Hidden
350
4E2
  3
3dWireframe
350
4E1
  3
Basic
350
4DF
  3
Brighten
350
4E6
  3
ColorChange
350
4EA
  3
Conceptual
350
4E3
  3
Dim
350
4E5
  3
Facepattern
350
4E9
  3
Flat
350
4DB
  3
FlatWithEdges
350
4DC
  3
Gouraud
350
4DD
  3
GouraudWithEdges
350
4DE
  3
Linepattern
350
4E8
  3
Realistic
350
4E4
  3
Thicken
350
4E7
  0
XRECORD
  5
9D4
102
{ACAD_REACTORS
330
C
102
}
330
C
100
AcDbXrecord
280
     1
 90
        1
330
4EC
  0
DICTIONARY
  5
32
102
{ACAD_REACTORS
330
C
102
}
330
C
100
AcDbDictionary
281
     1
  3
CANNOSCALE
350
9D8
  3
CMLEADERSTYLE
350
9D6
  3
CTABLESTYLE
350
9D5
  3
DIMASSOC
350
3C0
  3
INDEXCTL
350
33
  3
LIGHTINGUNITS
350
9D9
  3
MSLTSCALE
350
9D7
  0
DICTIONARY
  5
4D
102
{ACAD_REACTORS
330
C
102
}
330
C
100
AcDbDictionary
281
     1
  3
AcmStdDictionary
350
6D
  3
AMDTSECTSYM_ARROWCOLOR
350
48D
  0
DICTIONARY
  5
3F
102
{ACAD_REACTORS
330
C
102
}
330
C
100
AcDbDictionary
281
     1
  0
DICTIONARY
  5
64
102
{ACAD_REACTORS
330
C
102
}
330
C
100
AcDbDictionary
281
     1
  0
DICTIONARY
  5
3DA
102
{ACAD_REACTORS
330
C
102
}
330
C
100
AcDbDictionary
281
     1
  3
ASEBlockHierarchyIndexRecord
350
3DB
1001
DCO15
1040
1437804047.281
  0
DICTIONARY
  5
9B7
102
{ACAD_REACTORS
330
C
102
}
330
C
100
AcDbDictionary
281
     1
  0
XRECORD
  5
9C9
102
{ACAD_REACTORS
330
9C8
102
}
330
9C8
100
AcDbXrecord
280
     1
290
     1
  0
XRECORD
  5
9CB
102
{ACAD_REACTORS
330
9CA
102
}
330
9CA
100
AcDbXrecord
280
     1
290
     1
  0
XRECORD
  5
9CD
102
{ACAD_REACTORS
330
9CC
102
}
330
9CC
100
AcDbXrecord
280
     1
290
     1
  0
XRECORD
  5
9CF
102
{ACAD_REACTORS
330
9CE
102
}
330
9CE
100
AcDbXrecord
280
     1
290
     1
  0
XRECORD
  5
9D1
102
{ACAD_REACTORS
330
9D0
102
}
330
9D0
100
AcDbXrecord
280
     1
290
     1
  0
LAYOUT
  5
1E
102
{ACAD_REACTORS
330
1A
102
}
330
1A
100
AcDbPlotSettings
  1

  2
ZVV.pc3
  4
ISO_expand_A0_(841.00_x_1189.00_MM)
  6

 40
5.793749809265136
 41
29.79375076293946
 42
5.81878662109375
 43
5.8187255859375
 44
841.0
 45
1189.0
 46
0.0
 47
0.0
 48
0.0
 49
0.0
140
0.0
141
0.0
142
1.0
143
1.0
 70
   688
 72
     1
 73
     1
 74
     5
  7
siteco.ctb
 75
    16
147
1.0
 76
     0
 77
     2
 78
   300
148
0.0
149
0.0
100
AcDbLayout
  1
Layout1
 70
     1
 71
     1
 10
-5.8187255859375
 20
-5.793749809265136
 11
1183.181274414062
 21
835.2062501907349
 12
0.0
 22
0.0
 32
0.0
 14
1.000000000000000E+20
 24
1.000000000000000E+20
 34
1.000000000000000E+20
 15
-1.000000000000000E+20
 25
-1.000000000000000E+20
 35
-1.000000000000000E+20
146
0.0
 13
0.0
 23
0.0
 33
0.0
 16
1.0
 26
0.0
 36
0.0
 17
0.0
 27
1.0
 37
0.0
 76
     0
330
1B
331
12B
  0
LAYOUT
  5
26
102
{ACAD_REACTORS
330
1A
102
}
330
1A
100
AcDbPlotSettings
  1

  2
ZVV.pc3
  4
ISO_expand_A0_(841.00_x_1189.00_MM)
  6

 40
5.793749809265136
 41
29.79375076293946
 42
5.81878662109375
 43
5.8187255859375
 44
841.0
 45
1189.0
 46
0.0
 47
0.0
 48
0.0
 49
0.0
140
0.0
141
0.0
142
1.0
143
1.0
 70
   688
 72
     1
 73
     1
 74
     5
  7
siteco.ctb
 75
    16
147
1.0
 76
     0
 77
     2
 78
   300
148
0.0
149
0.0
100
AcDbLayout
  1
Layout2
 70
     0
 71
     2
 10
-5.8187255859375
 20
-5.793749809265136
 11
1183.181274414062
 21
835.2062501907349
 12
0.0
 22
0.0
 32
0.0
 14
1.000000000000000E+20
 24
1.000000000000000E+20
 34
1.000000000000000E+20
 15
-1.000000000000000E+20
 25
-1.000000000000000E+20
 35
-1.000000000000000E+20
146
0.0
 13
0.0
 23
0.0
 33
0.0
 16
1.0
 26
0.0
 36
0.0
 17
0.0
 27
1.0
 37
0.0
 76
     0
330
23
331
130
  0
LAYOUT
  5
22
102
{ACAD_REACTORS
330
1A
102
}
330
1A
100
AcDbPlotSettings
  1

  2
ZVV.pc3
  4
ISO_expand_A0_(841.00_x_1189.00_MM)
  6

 40
5.793749809265136
 41
29.79375076293946
 42
5.81878662109375
 43
5.8187255859375
 44
841.0
 45
1189.0
 46
0.0
 47
0.0
 48
0.0
 49
0.0
140
0.0
141
0.0
142
1.0
143
1.0
 70
 11952
 72
     1
 73
     1
 74
     2
  7
siteco.ctb
 75
    16
147
1.0
 76
     0
 77
     2
 78
   300
148
0.0
149
0.0
100
AcDbLayout
  1
Model
 70
     1
 71
     0
 10
0.0
 20
0.0
 11
12.0
 21
9.0
 12
0.0
 22
0.0
 32
0.0
 14
0.0
 24
0.0
 34
0.0
 15
0.0
 25
0.0
 35
0.0
146
0.0
 13
0.0
 23
0.0
 33
0.0
 16
1.0
 26
0.0
 36
0.0
 17
0.0
 27
1.0
 37
0.0
 76
     0
330
1F
331
4C0
  0
MATERIAL
  5
4CA
102
{ACAD_XDICTIONARY
360
4CB
102
}
102
{ACAD_REACTORS
330
414
102
}
330
414
100
AcDbMaterial
  1
ByBlock
 72
     0
 43
0.0008202099737533
 43
0.0
 43
0.0
 43
0.0
 43
0.0
 43
0.0008202099737533
 43
0.0
 43
0.0
 43
0.0
 43
0.0
 43
1.0
 43
0.0
 43
0.0
 43
0.0
 43
0.0
 43
1.0
 77
     0
 47
0.0008202099737533
 47
0.0
 47
0.0
 47
0.0
 47
0.0
 47
0.0008202099737533
 47
0.0
 47
0.0
 47
0.0
 47
0.0
 47
1.0
 47
0.0
 47
0.0
 47
0.0
 47
0.0
 47
1.0
171
     0
 49
0.0008202099737533
 49
0.0
 49
0.0
 49
0.0
 49
0.0
 49
0.0008202099737533
 49
0.0
 49
0.0
 49
0.0
 49
0.0
 49
1.0
 49
0.0
 49
0.0
 49
0.0
 49
0.0
 49
1.0
175
     0
142
0.0008202099737533
142
0.0
142
0.0
142
0.0
142
0.0
142
0.0008202099737533
142
0.0
142
0.0
142
0.0
142
0.0
142
1.0
142
0.0
142
0.0
142
0.0
142
0.0
142
1.0
179
     0
144
0.0008202099737533
144
0.0
144
0.0
144
0.0
144
0.0
144
0.0008202099737533
144
0.0
144
0.0
144
0.0
144
0.0
144
1.0
144
0.0
144
0.0
144
0.0
144
0.0
144
1.0
147
0.0008202099737533
147
0.0
147
0.0
147
0.0
147
0.0
147
0.0008202099737533
147
0.0
147
0.0
147
0.0
147
0.0
147
1.0
147
0.0
147
0.0
147
0.0
147
0.0
147
1.0
  0
MATERIAL
  5
4C2
102
{ACAD_XDICTIONARY
360
4C3
102
}
102
{ACAD_REACTORS
330
414
102
}
330
414
100
AcDbMaterial
  1
ByLayer
 72
     0
 43
0.0008202099737533
 43
0.0
 43
0.0
 43
0.0
 43
0.0
 43
0.0008202099737533
 43
0.0
 43
0.0
 43
0.0
 43
0.0
 43
1.0
 43
0.0
 43
0.0
 43
0.0
 43
0.0
 43
1.0
 77
     0
 47
0.0008202099737533
 47
0.0
 47
0.0
 47
0.0
 47
0.0
 47
0.0008202099737533
 47
0.0
 47
0.0
 47
0.0
 47
0.0
 47
1.0
 47
0.0
 47
0.0
 47
0.0
 47
0.0
 47
1.0
171
     0
 49
0.0008202099737533
 49
0.0
 49
0.0
 49
0.0
 49
0.0
 49
0.0008202099737533
 49
0.0
 49
0.0
 49
0.0
 49
0.0
 49
1.0
 49
0.0
 49
0.0
 49
0.0
 49
0.0
 49
1.0
175
     0
142
0.0008202099737533
142
0.0
142
0.0
142
0.0
142
0.0
142
0.0008202099737533
142
0.0
142
0.0
142
0.0
142
0.0
142
1.0
142
0.0
142
0.0
142
0.0
142
0.0
142
1.0
179
     0
144
0.0008202099737533
144
0.0
144
0.0
144
0.0
144
0.0
144
0.0008202099737533
144
0.0
144
0.0
144
0.0
144
0.0
144
1.0
144
0.0
144
0.0
144
0.0
144
0.0
144
1.0
147
0.0008202099737533
147
0.0
147
0.0
147
0.0
147
0.0
147
0.0008202099737533
147
0.0
147
0.0
147
0.0
147
0.0
147
1.0
147
0.0
147
0.0
147
0.0
147
0.0
147
1.0
  0
MATERIAL
  5
4D2
102
{ACAD_XDICTIONARY
360
4D3
102
}
102
{ACAD_REACTORS
330
414
102
}
330
414
100
AcDbMaterial
  1
Global
 72
     0
 43
0.0008202099737533
 43
0.0
 43
0.0
 43
0.0
 43
0.0
 43
0.0008202099737533
 43
0.0
 43
0.0
 43
0.0
 43
0.0
 43
1.0
 43
0.0
 43
0.0
 43
0.0
 43
0.0
 43
1.0
 77
     0
 47
0.0008202099737533
 47
0.0
 47
0.0
 47
0.0
 47
0.0
 47
0.0008202099737533
 47
0.0
 47
0.0
 47
0.0
 47
0.0
 47
1.0
 47
0.0
 47
0.0
 47
0.0
 47
0.0
 47
1.0
171
     0
 49
0.0008202099737533
 49
0.0
 49
0.0
 49
0.0
 49
0.0
 49
0.0008202099737533
 49
0.0
 49
0.0
 49
0.0
 49
0.0
 49
1.0
 49
0.0
 49
0.0
 49
0.0
 49
0.0
 49
1.0
175
     0
142
0.0008202099737533
142
0.0
142
0.0
142
0.0
142
0.0
142
0.0008202099737533
142
0.0
142
0.0
142
0.0
142
0.0
142
1.0
142
0.0
142
0.0
142
0.0
142
0.0
142
1.0
179
     0
144
0.0008202099737533
144
0.0
144
0.0
144
0.0
144
0.0
144
0.0008202099737533
144
0.0
144
0.0
144
0.0
144
0.0
144
1.0
144
0.0
144
0.0
144
0.0
144
0.0
144
1.0
147
0.0008202099737533
147
0.0
147
0.0
147
0.0
147
0.0
147
0.0008202099737533
147
0.0
147
0.0
147
0.0
147
0.0
147
1.0
147
0.0
147
0.0
147
0.0
147
0.0
147
1.0
  0
MATERIAL
  5
9B6
102
{ACAD_XDICTIONARY
360
9B8
102
}
102
{ACAD_REACTORS
330
414
102
}
330
414
100
AcDbMaterial
  1
Si05 Siteco Eise
 70
     1
 90
-1032227994
 71
     1
 91
-1032227994
 72
     0
 44
0.0
 76
     1
 92
-1031831681
 77
     0
171
     0
175
     0
179
     0
  0
MATERIAL
  5
9BF
102
{ACAD_XDICTIONARY
360
9C0
102
}
102
{ACAD_REACTORS
330
414
102
}
330
414
100
AcDbMaterial
  1
Si71 Glas opal_5
 70
     1
 90
-1023410177
 71
     1
 91
-1023410177
 72
     0
 44
0.0
 76
     1
 92
-1031831681
 77
     0
171
     0
175
     0
179
     0
  0
MLEADERSTYLE
  5
510
102
{ACAD_REACTORS
330
50F
102
}
330
50F
100
AcDbMLeaderStyle
170
     2
171
     1
172
     0
 90
        2
 40
0.0
 41
0.0
173
     1
 91
-1056964608
340
14
 92
       -2
290
     1
 42
2.0
291
     1
 43
0.36
  3
Standard
 44
4.0
300

342
11
174
     1
178
     6
175
     1
176
     0
 93
-1056964608
 45
4.0
292
     0
297
     0
 46
4.0
 94
-1056964608
 47
1.0
 49
1.0
140
1.0
293
     1
141
0.0
294
     1
177
     0
142
1.0
295
     0
296
     0
143
0.125
1001
ACAD_MLEADERVER
1070
     2
  0
MLINESTYLE
  5
18
102
{ACAD_REACTORS
330
17
102
}
330
17
100
AcDbMlineStyle
  2
STANDARD
 70
     0
  3

 62
   256
 51
90.0
 52
90.0
 71
     2
 49
0.5
 62
   256
  6
BYLAYER
 49
-0.5
 62
   256
  6
BYLAYER
  0
ACDBPLACEHOLDER
  5
F
102
{ACAD_REACTORS
330
E
102
}
330
E
  0
SCALE
  5
4EE
102
{ACAD_REACTORS
330
4ED
102
}
330
4ED
100
AcDbScale
 70
     0
300
1:1
140
1.0
141
1.0
290
     1
  0
SCALE
  5
4EF
102
{ACAD_REACTORS
330
4ED
102
}
330
4ED
100
AcDbScale
 70
     0
300
1:2
140
1.0
141
2.0
290
     0
  0
SCALE
  5
4F0
102
{ACAD_REACTORS
330
4ED
102
}
330
4ED
100
AcDbScale
 70
     0
300
1:4
140
1.0
141
4.0
290
     0
  0
SCALE
  5
4F1
102
{ACAD_REACTORS
330
4ED
102
}
330
4ED
100
AcDbScale
 70
     0
300
1:5
140
1.0
141
5.0
290
     0
  0
SCALE
  5
4F2
102
{ACAD_REACTORS
330
4ED
102
}
330
4ED
100
AcDbScale
 70
     0
300
1:8
140
1.0
141
8.0
290
     0
  0
SCALE
  5
4F3
102
{ACAD_REACTORS
330
4ED
102
}
330
4ED
100
AcDbScale
 70
     0
300
1:10
140
1.0
141
10.0
290
     0
  0
SCALE
  5
4F4
102
{ACAD_REACTORS
330
4ED
102
}
330
4ED
100
AcDbScale
 70
     0
300
1:16
140
1.0
141
16.0
290
     0
  0
SCALE
  5
4F5
102
{ACAD_REACTORS
330
4ED
102
}
330
4ED
100
AcDbScale
 70
     0
300
1:20
140
1.0
141
20.0
290
     0
  0
SCALE
  5
4F6
102
{ACAD_REACTORS
330
4ED
102
}
330
4ED
100
AcDbScale
 70
     0
300
1:30
140
1.0
141
30.0
290
     0
  0
SCALE
  5
4F7
102
{ACAD_REACTORS
330
4ED
102
}
330
4ED
100
AcDbScale
 70
     0
300
1:40
140
1.0
141
40.0
290
     0
  0
SCALE
  5
4F8
102
{ACAD_REACTORS
330
4ED
102
}
330
4ED
100
AcDbScale
 70
     0
300
1:50
140
1.0
141
50.0
290
     0
  0
SCALE
  5
4F9
102
{ACAD_REACTORS
330
4ED
102
}
330
4ED
100
AcDbScale
 70
     0
300
1:100
140
1.0
141
100.0
290
     0
  0
SCALE
  5
4FA
102
{ACAD_REACTORS
330
4ED
102
}
330
4ED
100
AcDbScale
 70
     0
300
2:1
140
2.0
141
1.0
290
     0
  0
SCALE
  5
4FB
102
{ACAD_REACTORS
330
4ED
102
}
330
4ED
100
AcDbScale
 70
     0
300
4:1
140
4.0
141
1.0
290
     0
  0
SCALE
  5
4FC
102
{ACAD_REACTORS
330
4ED
102
}
330
4ED
100
AcDbScale
 70
     0
300
8:1
140
8.0
141
1.0
290
     0
  0
SCALE
  5
4FD
102
{ACAD_REACTORS
330
4ED
102
}
330
4ED
100
AcDbScale
 70
     0
300
10:1
140
10.0
141
1.0
290
     0
  0
SCALE
  5
4FE
102
{ACAD_REACTORS
330
4ED
102
}
330
4ED
100
AcDbScale
 70
     0
300
100:1
140
100.0
141
1.0
290
     0
  0
SCALE
  5
4FF
102
{ACAD_REACTORS
330
4ED
102
}
330
4ED
100
AcDbScale
 70
     0
300
1/128" = 1'-0"
140
0.0078125
141
12.0
290
     0
  0
SCALE
  5
500
102
{ACAD_REACTORS
330
4ED
102
}
330
4ED
100
AcDbScale
 70
     0
300
1/64" = 1'-0"
140
0.015625
141
12.0
290
     0
  0
SCALE
  5
501
102
{ACAD_REACTORS
330
4ED
102
}
330
4ED
100
AcDbScale
 70
     0
300
1/32" = 1'-0"
140
0.03125
141
12.0
290
     0
  0
SCALE
  5
502
102
{ACAD_REACTORS
330
4ED
102
}
330
4ED
100
AcDbScale
 70
     0
300
1/16" = 1'-0"
140
0.0625
141
12.0
290
     0
  0
SCALE
  5
503
102
{ACAD_REACTORS
330
4ED
102
}
330
4ED
100
AcDbScale
 70
     0
300
3/32" = 1'-0"
140
0.09375
141
12.0
290
     0
  0
SCALE
  5
504
102
{ACAD_REACTORS
330
4ED
102
}
330
4ED
100
AcDbScale
 70
     0
300
1/8" = 1'-0"
140
0.125
141
12.0
290
     0
  0
SCALE
  5
505
102
{ACAD_REACTORS
330
4ED
102
}
330
4ED
100
AcDbScale
 70
     0
300
3/16" = 1'-0"
140
0.1875
141
12.0
290
     0
  0
SCALE
  5
506
102
{ACAD_REACTORS
330
4ED
102
}
330
4ED
100
AcDbScale
 70
     0
300
1/4" = 1'-0"
140
0.25
141
12.0
290
     0
  0
SCALE
  5
507
102
{ACAD_REACTORS
330
4ED
102
}
330
4ED
100
AcDbScale
 70
     0
300
3/8" = 1'-0"
140
0.375
141
12.0
290
     0
  0
SCALE
  5
508
102
{ACAD_REACTORS
330
4ED
102
}
330
4ED
100
AcDbScale
 70
     0
300
1/2" = 1'-0"
140
0.5
141
12.0
290
     0
  0
SCALE
  5
509
102
{ACAD_REACTORS
330
4ED
102
}
330
4ED
100
AcDbScale
 70
     0
300
3/4" = 1'-0"
140
0.75
141
12.0
290
     0
  0
SCALE
  5
50A
102
{ACAD_REACTORS
330
4ED
102
}
330
4ED
100
AcDbScale
 70
     0
300
1" = 1'-0"
140
1.0
141
12.0
290
     0
  0
SCALE
  5
50B
102
{ACAD_REACTORS
330
4ED
102
}
330
4ED
100
AcDbScale
 70
     0
300
1-1/2" = 1'-0"
140
1.5
141
12.0
290
     0
  0
SCALE
  5
50C
102
{ACAD_REACTORS
330
4ED
102
}
330
4ED
100
AcDbScale
 70
     0
300
3" = 1'-0"
140
3.0
141
12.0
290
     0
  0
SCALE
  5
50D
102
{ACAD_REACTORS
330
4ED
102
}
330
4ED
100
AcDbScale
 70
     0
300
6" = 1'-0"
140
6.0
141
12.0
290
     0
  0
SCALE
  5
50E
102
{ACAD_REACTORS
330
4ED
102
}
330
4ED
100
AcDbScale
 70
     0
300
1'-0" = 1'-0"
140
12.0
141
12.0
290
     0
  0
TABLESTYLE
  5
4EC
102
{ACAD_XDICTIONARY
360
9D2
102
}
102
{ACAD_REACTORS
330
4EB
102
}
330
4EB
100
AcDbTableStyle
  3
Standard
 70
     0
 71
     0
 40
1.5
 41
1.5
280
     0
281
     0
  7
STANDARD
140
4.5
170
     2
 62
     0
 63
     7
283
     0
274
    -2
284
     1
 64
     0
275
    -2
285
     1
 65
     0
276
    -2
286
     1
 66
     0
277
    -2
287
     1
 67
     0
278
    -2
288
     1
 68
     0
279
    -2
289
     1
 69
     0
  7
STANDARD
140
6.0
170
     5
 62
     0
 63
     7
283
     0
274
    -2
284
     1
 64
     0
275
    -2
285
     1
 65
     0
276
    -2
286
     1
 66
     0
277
    -2
287
     1
 67
     0
278
    -2
288
     1
 68
     0
279
    -2
289
     1
 69
     0
  7
STANDARD
140
4.5
170
     5
 62
     0
 63
     7
283
     0
274
    -2
284
     1
 64
     0
275
    -2
285
     1
 65
     0
276
    -2
286
     1
 66
     0
277
    -2
287
     1
 67
     0
278
    -2
288
     1
 68
     0
279
    -2
289
     1
 69
     0
  0
VISUALSTYLE
  5
4E0
102
{ACAD_REACTORS
330
4DA
102
}
330
4DA
100
AcDbVisualStyle
  2
2dWireframe
 70
     4
 71
     0
 72
     2
 73
     0
 90
        0
 40
-0.6
 41
-30.0
 62
     5
 63
     7
421
 16777215
 74
     1
 91
        4
 64
     7
 65
   257
 75
     1
175
     1
 42
1.0
 92
        0
 66
   257
 43
1.0
 76
     1
 77
     6
 78
     2
 67
     7
 79
     5
170
     0
171
     0
290
     0
174
     0
 93
        1
 44
0.0
173
     0
291
     0
 45
0.0
1001
ACAD
1000
AcDbSavedByObjectVersion
1070
     0
  0
VISUALSTYLE
  5
4E2
102
{ACAD_REACTORS
330
4DA
102
}
330
4DA
100
AcDbVisualStyle
  2
3D Hidden
 70
     6
 71
     1
 72
     2
 73
     2
 90
        0
 40
-0.6
 41
-30.0
 62
     5
 63
     7
421
 16777215
 74
     2
 91
        2
 64
     7
 65
   257
 75
     2
175
     1
 42
40.0
 92
        0
 66
   257
 43
1.0
 76
     1
 77
     6
 78
     2
 67
     7
 79
     3
170
     0
171
     0
290
     0
174
     0
 93
        1
 44
0.0
173
     0
291
     0
 45
0.0
1001
ACAD
1000
AcDbSavedByObjectVersion
1070
     0
  0
VISUALSTYLE
  5
4E1
102
{ACAD_REACTORS
330
4DA
102
}
330
4DA
100
AcDbVisualStyle
  2
3dWireframe
 70
     5
 71
     0
 72
     2
 73
     0
 90
        0
 40
-0.6
 41
-30.0
 62
     5
 63
     7
421
 16777215
 74
     1
 91
        4
 64
     7
 65
   257
 75
     1
175
     1
 42
1.0
 92
        0
 66
   257
 43
1.0
 76
     1
 77
     6
 78
     2
 67
     7
 79
     5
170
     0
171
     0
290
     0
174
     0
 93
        1
 44
0.0
173
     0
291
     0
 45
0.0
1001
ACAD
1000
AcDbSavedByObjectVersion
1070
     0
  0
VISUALSTYLE
  5
4DF
102
{ACAD_REACTORS
330
4DA
102
}
330
4DA
100
AcDbVisualStyle
  2
Basic
 70
     7
 71
     1
 72
     0
 73
     1
 90
        0
 40
-0.6
 41
-30.0
 62
     5
 63
     7
421
 16777215
 74
     0
 91
        4
 64
     7
 65
   257
 75
     1
175
     1
 42
1.0
 92
        8
 66
     7
 43
1.0
 76
     1
 77
     6
 78
     2
 67
     7
 79
     5
170
     0
171
     0
290
     0
174
     0
 93
        1
 44
0.0
173
     0
291
     1
 45
0.0
1001
ACAD
1000
AcDbSavedByObjectVersion
1070
     0
  0
VISUALSTYLE
  5
4E6
102
{ACAD_REACTORS
330
4DA
102
}
330
4DA
100
AcDbVisualStyle
  2
Brighten
 70
    12
 71
     2
 72
     2
 73
     0
 90
        0
 40
-0.6
 41
-30.0
 62
     5
 63
     7
421
 16777215
 74
     1
 91
        4
 64
     7
 65
   257
 75
     1
175
     1
 42
1.0
 92
        8
 66
     7
 43
1.0
 76
     1
 77
     6
 78
     2
 67
     7
 79
     5
170
     0
171
     0
290
     0
174
     0
 93
        1
 44
50.0
173
     0
291
     1
 45
0.0
1001
ACAD
1000
AcDbSavedByObjectVersion
1070
     0
  0
VISUALSTYLE
  5
4EA
102
{ACAD_REACTORS
330
4DA
102
}
330
4DA
100
AcDbVisualStyle
  2
ColorChange
 70
    16
 71
     2
 72
     2
 73
     3
 90
        0
 40
-0.6
 41
-30.0
 62
     5
 63
     8
421
  8421504
 74
     1
 91
        4
 64
     7
 65
   257
 75
     1
175
     1
 42
1.0
 92
        8
 66
     8
424
  8421504
 43
1.0
 76
     1
 77
     6
 78
     2
 67
     7
 79
     5
170
     0
171
     0
290
     0
174
     0
 93
        1
 44
0.0
173
     0
291
     1
 45
0.0
1001
ACAD
1000
AcDbSavedByObjectVersion
1070
     0
  0
VISUALSTYLE
  5
4E3
102
{ACAD_REACTORS
330
4DA
102
}
330
4DA
100
AcDbVisualStyle
  2
Conceptual
 70
     9
 71
     3
 72
     2
 73
     0
 90
        0
 40
-0.6
 41
-30.0
 62
     5
 63
     7
421
 16777215
 74
     2
 91
        2
 64
     7
 65
   257
 75
     1
175
     1
 42
40.0
 92
        8
 66
     7
 43
1.0
 76
     1
 77
     6
 78
     2
 67
     7
 79
     3
170
     0
171
     0
290
     0
174
     0
 93
        1
 44
0.0
173
     0
291
     0
 45
0.0
1001
ACAD
1000
AcDbSavedByObjectVersion
1070
     0
  0
VISUALSTYLE
  5
4E5
102
{ACAD_REACTORS
330
4DA
102
}
330
4DA
100
AcDbVisualStyle
  2
Dim
 70
    11
 71
     2
 72
     2
 73
     0
 90
        0
 40
-0.6
 41
-30.0
 62
     5
 63
     7
421
 16777215
 74
     1
 91
        4
 64
     7
 65
   257
 75
     1
175
     1
 42
1.0
 92
        8
 66
     7
 43
1.0
 76
     1
 77
     6
 78
     2
 67
     7
 79
     5
170
     0
171
     0
290
     0
174
     0
 93
        1
 44
-50.0
173
     0
291
     1
 45
0.0
1001
ACAD
1000
AcDbSavedByObjectVersion
1070
     0
  0
VISUALSTYLE
  5
4E9
102
{ACAD_REACTORS
330
4DA
102
}
330
4DA
100
AcDbVisualStyle
  2
Facepattern
 70
    15
 71
     2
 72
     2
 73
     0
 90
        0
 40
-0.6
 41
-30.0
 62
     5
 63
     7
421
 16777215
 74
     1
 91
        4
 64
     7
 65
   257
 75
     1
175
     1
 42
1.0
 92
        8
 66
     7
 43
1.0
 76
     1
 77
     6
 78
     2
 67
     7
 79
     5
170
     0
171
     0
290
     0
174
     0
 93
        1
 44
0.0
173
     0
291
     1
 45
0.0
1001
ACAD
1000
AcDbSavedByObjectVersion
1070
     0
  0
VISUALSTYLE
  5
4DB
102
{ACAD_REACTORS
330
4DA
102
}
330
4DA
100
AcDbVisualStyle
  2
Flat
 70
     0
 71
     2
 72
     1
 73
     1
 90
        2
 40
-0.6
 41
30.0
 62
     5
 63
     7
421
 16777215
 74
     0
 91
        4
 64
     7
 65
   257
 75
     1
175
     1
 42
1.0
 92
        8
 66
     7
 43
1.0
 76
     1
 77
     6
 78
     2
 67
     7
 79
     5
170
     0
171
     0
290
     0
174
     0
 93
       13
 44
0.0
173
     0
291
     1
 45
0.0
1001
ACAD
1000
AcDbSavedByObjectVersion
1070
     0
  0
VISUALSTYLE
  5
4DC
102
{ACAD_REACTORS
330
4DA
102
}
330
4DA
100
AcDbVisualStyle
  2
FlatWithEdges
 70
     1
 71
     2
 72
     1
 73
     1
 90
        2
 40
-0.6
 41
30.0
 62
     5
 63
     7
421
 16777215
 74
     1
 91
        4
 64
     7
 65
   257
 75
     1
175
     1
 42
1.0
 92
        0
 66
   257
 43
1.0
 76
     1
 77
     6
 78
     2
 67
     7
 79
     5
170
     0
171
     0
290
     0
174
     0
 93
       13
 44
0.0
173
     0
291
     1
 45
0.0
1001
ACAD
1000
AcDbSavedByObjectVersion
1070
     0
  0
VISUALSTYLE
  5
4DD
102
{ACAD_REACTORS
330
4DA
102
}
330
4DA
100
AcDbVisualStyle
  2
Gouraud
 70
     2
 71
     2
 72
     2
 73
     1
 90
        2
 40
-0.6
 41
30.0
 62
     5
 63
     7
421
 16777215
 74
     0
 91
        4
 64
     7
 65
   257
 75
     1
175
     1
 42
1.0
 92
        0
 66
     7
 43
1.0
 76
     1
 77
     6
 78
     2
 67
     7
 79
     5
170
     0
171
     0
290
     0
174
     0
 93
       13
 44
0.0
173
     0
291
     1
 45
0.0
1001
ACAD
1000
AcDbSavedByObjectVersion
1070
     0
  0
VISUALSTYLE
  5
4DE
102
{ACAD_REACTORS
330
4DA
102
}
330
4DA
100
AcDbVisualStyle
  2
GouraudWithEdges
 70
     3
 71
     2
 72
     2
 73
     1
 90
        2
 40
-0.6
 41
30.0
 62
     5
 63
     7
421
 16777215
 74
     1
 91
        4
 64
     7
 65
   257
 75
     1
175
     1
 42
1.0
 92
        0
 66
   257
 43
1.0
 76
     1
 77
     6
 78
     2
 67
     7
 79
     5
170
     0
171
     0
290
     0
174
     0
 93
       13
 44
0.0
173
     0
291
     1
 45
0.0
1001
ACAD
1000
AcDbSavedByObjectVersion
1070
     0
  0
VISUALSTYLE
  5
4E8
102
{ACAD_REACTORS
330
4DA
102
}
330
4DA
100
AcDbVisualStyle
  2
Linepattern
 70
    14
 71
     2
 72
     2
 73
     0
 90
        0
 40
-0.6
 41
-30.0
 62
     5
 63
     7
421
 16777215
 74
     1
 91
        4
 64
     7
 65
   257
 75
     7
175
     7
 42
1.0
 92
        8
 66
     7
 43
1.0
 76
     1
 77
     6
 78
     2
 67
     7
 79
     5
170
     0
171
     0
290
     0
174
     0
 93
        1
 44
0.0
173
     0
291
     1
 45
0.0
1001
ACAD
1000
AcDbSavedByObjectVersion
1070
     0
  0
VISUALSTYLE
  5
4E4
102
{ACAD_REACTORS
330
4DA
102
}
330
4DA
100
AcDbVisualStyle
  2
Realistic
 70
     8
 71
     2
 72
     2
 73
     0
 90
        0
 40
-0.6
 41
-30.0
 62
     5
 63
     7
421
 16777215
 74
     1
 91
        0
 64
     7
 65
   257
 75
     1
175
     1
 42
1.0
 92
        8
 66
     8
424
  7895160
 43
1.0
 76
     1
 77
     6
 78
     2
 67
     7
 79
     5
170
     0
171
     0
290
     0
174
     0
 93
       13
 44
0.0
173
     0
291
     0
 45
0.0
1001
ACAD
1000
AcDbSavedByObjectVersion
1070
     0
  0
VISUALSTYLE
  5
4E7
102
{ACAD_REACTORS
330
4DA
102
}
330
4DA
100
AcDbVisualStyle
  2
Thicken
 70
    13
 71
     2
 72
     2
 73
     0
 90
        0
 40
-0.6
 41
-30.0
 62
     5
 63
     7
421
 16777215
 74
     1
 91
        4
 64
     7
 65
   257
 75
     1
175
     1
 42
1.0
 92
       12
 66
     7
 43
1.0
 76
     1
 77
     6
 78
     2
 67
     7
 79
     5
170
     0
171
     0
290
     0
174
     0
 93
        1
 44
0.0
173
     0
291
     1
 45
0.0
1001
ACAD
1000
AcDbSavedByObjectVersion
1070
     0
  0
DICTIONARYVAR
  5
9D8
102
{ACAD_REACTORS
330
32
102
}
330
32
100
DictionaryVariables
280
     0
  1
1:1
  0
DICTIONARYVAR
  5
9D6
102
{ACAD_REACTORS
330
32
102
}
330
32
100
DictionaryVariables
280
     0
  1
STANDARD
  0
DICTIONARYVAR
  5
9D5
102
{ACAD_REACTORS
330
32
102
}
330
32
100
DictionaryVariables
280
     0
  1
STANDARD
  0
DICTIONARYVAR
  5
3C0
102
{ACAD_REACTORS
330
32
102
}
330
32
100
DictionaryVariables
280
     0
  1
1
  0
DICTIONARYVAR
  5
33
102
{ACAD_REACTORS
330
32
102
}
330
32
100
DictionaryVariables
280
     0
  1
1
  0
DICTIONARYVAR
  5
9D9
102
{ACAD_REACTORS
330
32
102
}
330
32
100
DictionaryVariables
280
     0
  1
0
  0
DICTIONARYVAR
  5
9D7
102
{ACAD_REACTORS
330
32
102
}
330
32
100
DictionaryVariables
280
     0
  1
0
  0
DICTIONARY
  5
6D
102
{ACAD_REACTORS
330
4D
102
}
330
4D
100
AcDbDictionary
281
     1
  0
XRECORD
  5
48D
102
{ACAD_REACTORS
330
4D
102
}
330
4D
100
AcDbXrecord
280
     1
 90
-1023410169
  0
XRECORD
  5
3DB
102
{ACAD_REACTORS
330
3DA
102
}
330
3DA
100
AcDbXrecord
280
     1
330
0
330
0
  0
DICTIONARY
  5
4CB
330
4CA
100
AcDbDictionary
280
     1
281
     1
  3
ACAD_XREC_ROUNDTRIP
360
9F7
  3
BUMPTILE
360
4CD
  3
DIFFUSETILE
360
4CC
  3
OPACITYTILE
360
4D0
  3
REFLECTIONTILE
360
4CF
  3
REFRACTIONTILE
360
4D1
  3
SPECULARTILE
360
4CE
  0
DICTIONARY
  5
4C3
330
4C2
100
AcDbDictionary
280
     1
281
     1
  3
ACAD_XREC_ROUNDTRIP
360
9F6
  3
BUMPTILE
360
4C5
  3
DIFFUSETILE
360
4C4
  3
OPACITYTILE
360
4C8
  3
REFLECTIONTILE
360
4C7
  3
REFRACTIONTILE
360
4C9
  3
SPECULARTILE
360
4C6
  0
DICTIONARY
  5
4D3
330
4D2
100
AcDbDictionary
280
     1
281
     1
  3
ACAD_XREC_ROUNDTRIP
360
9F8
  3
BUMPTILE
360
4D5
  3
DIFFUSETILE
360
4D4
  3
OPACITYTILE
360
4D8
  3
REFLECTIONTILE
360
4D7
  3
REFRACTIONTILE
360
4D9
  3
SPECULARTILE
360
4D6
  0
DICTIONARY
  5
9B8
330
9B6
100
AcDbDictionary
280
     1
281
     1
  3
ACAD_XREC_ROUNDTRIP
360
9FA
  3
BUMPTILE
360
9BD
  3
DIFFUSETILE
360
9B9
  3
OPACITYTILE
360
9BC
  3
REFLECTIONTILE
360
9BB
  3
REFRACTIONTILE
360
9BE
  3
SPECULARTILE
360
9BA
  0
DICTIONARY
  5
9C0
330
9BF
100
AcDbDictionary
280
     1
281
     1
  3
ACAD_XREC_ROUNDTRIP
360
9FB
  3
BUMPTILE
360
9C5
  3
DIFFUSETILE
360
9C1
  3
OPACITYTILE
360
9C4
  3
REFLECTIONTILE
360
9C3
  3
REFRACTIONTILE
360
9C6
  3
SPECULARTILE
360
9C2
  0
DICTIONARY
  5
9D2
330
4EC
100
AcDbDictionary
280
     1
281
     1
  3
ACAD_ROUNDTRIP_2008_TABLESTYLE_CELLSTYLEMAP
360
9F5
  3
ACAD_XREC_ROUNDTRIP
360
9F9
  0
XRECORD
  5
9F7
102
{ACAD_REACTORS
330
4CB
102
}
330
4CB
100
AcDbXrecord
280
     1
102
MATERIAL
148
0.0
149
0.0
149
0.0
 93
        0
 94
      127
282
     0
 72
     0
 77
     0
171
     0
175
     0
179
     0
273
     0
  0
XRECORD
  5
4CD
102
{ACAD_REACTORS
330
4CB
102
}
330
4CB
100
AcDbXrecord
280
     1
270
     1
271
     1
  0
XRECORD
  5
4CC
102
{ACAD_REACTORS
330
4CB
102
}
330
4CB
100
AcDbXrecord
280
     1
270
     1
271
     1
  0
XRECORD
  5
4D0
102
{ACAD_REACTORS
330
4CB
102
}
330
4CB
100
AcDbXrecord
280
     1
270
     1
271
     1
  0
XRECORD
  5
4CF
102
{ACAD_REACTORS
330
4CB
102
}
330
4CB
100
AcDbXrecord
280
     1
270
     1
271
     1
  0
XRECORD
  5
4D1
102
{ACAD_REACTORS
330
4CB
102
}
330
4CB
100
AcDbXrecord
280
     1
270
     1
271
     1
  0
XRECORD
  5
4CE
102
{ACAD_REACTORS
330
4CB
102
}
330
4CB
100
AcDbXrecord
280
     1
270
     1
271
     1
  0
XRECORD
  5
9F6
102
{ACAD_REACTORS
330
4C3
102
}
330
4C3
100
AcDbXrecord
280
     1
102
MATERIAL
148
0.0
149
0.0
149
0.0
 93
        0
 94
      127
282
     0
 72
     0
 77
     0
171
     0
175
     0
179
     0
273
     0
  0
XRECORD
  5
4C5
102
{ACAD_REACTORS
330
4C3
102
}
330
4C3
100
AcDbXrecord
280
     1
270
     1
271
     1
  0
XRECORD
  5
4C4
102
{ACAD_REACTORS
330
4C3
102
}
330
4C3
100
AcDbXrecord
280
     1
270
     1
271
     1
  0
XRECORD
  5
4C8
102
{ACAD_REACTORS
330
4C3
102
}
330
4C3
100
AcDbXrecord
280
     1
270
     1
271
     1
  0
XRECORD
  5
4C7
102
{ACAD_REACTORS
330
4C3
102
}
330
4C3
100
AcDbXrecord
280
     1
270
     1
271
     1
  0
XRECORD
  5
4C9
102
{ACAD_REACTORS
330
4C3
102
}
330
4C3
100
AcDbXrecord
280
     1
270
     1
271
     1
  0
XRECORD
  5
4C6
102
{ACAD_REACTORS
330
4C3
102
}
330
4C3
100
AcDbXrecord
280
     1
270
     1
271
     1
  0
XRECORD
  5
9F8
102
{ACAD_REACTORS
330
4D3
102
}
330
4D3
100
AcDbXrecord
280
     1
102
MATERIAL
148
0.0
149
0.0
149
0.0
 93
        0
 94
      127
282
     0
 72
     0
 77
     0
171
     0
175
     0
179
     0
273
     0
  0
XRECORD
  5
4D5
102
{ACAD_REACTORS
330
4D3
102
}
330
4D3
100
AcDbXrecord
280
     1
270
     1
271
     1
  0
XRECORD
  5
4D4
102
{ACAD_REACTORS
330
4D3
102
}
330
4D3
100
AcDbXrecord
280
     1
270
     1
271
     1
  0
XRECORD
  5
4D8
102
{ACAD_REACTORS
330
4D3
102
}
330
4D3
100
AcDbXrecord
280
     1
270
     1
271
     1
  0
XRECORD
  5
4D7
102
{ACAD_REACTORS
330
4D3
102
}
330
4D3
100
AcDbXrecord
280
     1
270
     1
271
     1
  0
XRECORD
  5
4D9
102
{ACAD_REACTORS
330
4D3
102
}
330
4D3
100
AcDbXrecord
280
     1
270
     1
271
     1
  0
XRECORD
  5
4D6
102
{ACAD_REACTORS
330
4D3
102
}
330
4D3
100
AcDbXrecord
280
     1
270
     1
271
     1
  0
XRECORD
  5
9FA
102
{ACAD_REACTORS
330
9B8
102
}
330
9B8
100
AcDbXrecord
280
     1
102
MATERIAL
148
0.0
149
0.0
149
0.0
 93
        0
 94
      127
282
     1
 72
     0
 77
     0
171
     0
175
     0
179
     0
273
     0
  0
XRECORD
  5
9BD
102
{ACAD_REACTORS
330
9B8
102
}
330
9B8
100
AcDbXrecord
280
     1
270
     1
271
     1
  0
XRECORD
  5
9B9
102
{ACAD_REACTORS
330
9B8
102
}
330
9B8
100
AcDbXrecord
280
     1
270
     1
271
     1
  0
XRECORD
  5
9BC
102
{ACAD_REACTORS
330
9B8
102
}
330
9B8
100
AcDbXrecord
280
     1
270
     1
271
     1
  0
XRECORD
  5
9BB
102
{ACAD_REACTORS
330
9B8
102
}
330
9B8
100
AcDbXrecord
280
     1
270
     1
271
     1
  0
XRECORD
  5
9BE
102
{ACAD_REACTORS
330
9B8
102
}
330
9B8
100
AcDbXrecord
280
     1
270
     1
271
     1
  0
XRECORD
  5
9BA
102
{ACAD_REACTORS
330
9B8
102
}
330
9B8
100
AcDbXrecord
280
     1
270
     1
271
     1
  0
XRECORD
  5
9FB
102
{ACAD_REACTORS
330
9C0
102
}
330
9C0
100
AcDbXrecord
280
     1
102
MATERIAL
148
0.0
149
0.0
149
0.0
 93
        0
 94
      127
282
     1
 72
     0
 77
     0
171
     0
175
     0
179
     0
273
     0
  0
XRECORD
  5
9C5
102
{ACAD_REACTORS
330
9C0
102
}
330
9C0
100
AcDbXrecord
280
     1
270
     1
271
     1
  0
XRECORD
  5
9C1
102
{ACAD_REACTORS
330
9C0
102
}
330
9C0
100
AcDbXrecord
280
     1
270
     1
271
     1
  0
XRECORD
  5
9C4
102
{ACAD_REACTORS
330
9C0
102
}
330
9C0
100
AcDbXrecord
280
     1
270
     1
271
     1
  0
XRECORD
  5
9C3
102
{ACAD_REACTORS
330
9C0
102
}
330
9C0
100
AcDbXrecord
280
     1
270
     1
271
     1
  0
XRECORD
  5
9C6
102
{ACAD_REACTORS
330
9C0
102
}
330
9C0
100
AcDbXrecord
280
     1
270
     1
271
     1
  0
XRECORD
  5
9C2
102
{ACAD_REACTORS
330
9C0
102
}
330
9C0
100
AcDbXrecord
280
     1
270
     1
271
     1
  0
CELLSTYLEMAP
  5
9F5
102
{ACAD_REACTORS
330
9D2
102
}
330
9D2
100
AcDbCellStyleMap
 90
        3
300
CELLSTYLE
  1
TABLEFORMAT_BEGIN
 90
        5
170
     1
 91
        0
 92
    32768
 62
   257
 93
        1
300
CONTENTFORMAT
  1
CONTENTFORMAT_BEGIN
 90
        0
 91
        0
 92
      512
 93
        0
300

 40
0.0
140
1.0
 94
        5
 62
     0
340
11
144
6.0
309
CONTENTFORMAT_END
171
     1
301
MARGIN
  1
CELLMARGIN_BEGIN
 40
1.5
 40
1.5
 40
1.5
 40
1.5
 40
4.5
 40
4.5
309
CELLMARGIN_END
 94
        6
 95
        1
302
GRIDFORMAT
  1
GRIDFORMAT_BEGIN
 90
        0
 91
        1
 62
     0
 92
       -2
340
0
 93
        0
 40
1.125
309
GRIDFORMAT_END
 95
        2
302
GRIDFORMAT
  1
GRIDFORMAT_BEGIN
 90
        0
 91
        1
 62
     0
 92
       -2
340
0
 93
        0
 40
1.125
309
GRIDFORMAT_END
 95
        4
302
GRIDFORMAT
  1
GRIDFORMAT_BEGIN
 90
        0
 91
        1
 62
     0
 92
       -2
340
0
 93
        0
 40
1.125
309
GRIDFORMAT_END
 95
        8
302
GRIDFORMAT
  1
GRIDFORMAT_BEGIN
 90
        0
 91
        1
 62
     0
 92
       -2
340
0
 93
        0
 40
1.125
309
GRIDFORMAT_END
 95
       16
302
GRIDFORMAT
  1
GRIDFORMAT_BEGIN
 90
        0
 91
        1
 62
     0
 92
       -2
340
0
 93
        0
 40
1.125
309
GRIDFORMAT_END
 95
       32
302
GRIDFORMAT
  1
GRIDFORMAT_BEGIN
 90
        0
 91
        1
 62
     0
 92
       -2
340
0
 93
        0
 40
1.125
309
GRIDFORMAT_END
309
TABLEFORMAT_END
  1
CELLSTYLE_BEGIN
 90
        1
 91
        1
300
_TITLE
309
CELLSTYLE_END
300
CELLSTYLE
  1
TABLEFORMAT_BEGIN
 90
        5
170
     1
 91
        0
 92
        0
 62
   257
 93
        1
300
CONTENTFORMAT
  1
CONTENTFORMAT_BEGIN
 90
        0
 91
        0
 92
      512
 93
        0
300

 40
0.0
140
1.0
 94
        5
 62
     0
340
11
144
4.5
309
CONTENTFORMAT_END
171
     1
301
MARGIN
  1
CELLMARGIN_BEGIN
 40
1.5
 40
1.5
 40
1.5
 40
1.5
 40
4.5
 40
4.5
309
CELLMARGIN_END
 94
        6
 95
        1
302
GRIDFORMAT
  1
GRIDFORMAT_BEGIN
 90
        0
 91
        1
 62
     0
 92
       -2
340
0
 93
        0
 40
1.125
309
GRIDFORMAT_END
 95
        2
302
GRIDFORMAT
  1
GRIDFORMAT_BEGIN
 90
        0
 91
        1
 62
     0
 92
       -2
340
0
 93
        0
 40
1.125
309
GRIDFORMAT_END
 95
        4
302
GRIDFORMAT
  1
GRIDFORMAT_BEGIN
 90
        0
 91
        1
 62
     0
 92
       -2
340
0
 93
        0
 40
1.125
309
GRIDFORMAT_END
 95
        8
302
GRIDFORMAT
  1
GRIDFORMAT_BEGIN
 90
        0
 91
        1
 62
     0
 92
       -2
340
0
 93
        0
 40
1.125
309
GRIDFORMAT_END
 95
       16
302
GRIDFORMAT
  1
GRIDFORMAT_BEGIN
 90
        0
 91
        1
 62
     0
 92
       -2
340
0
 93
        0
 40
1.125
309
GRIDFORMAT_END
 95
       32
302
GRIDFORMAT
  1
GRIDFORMAT_BEGIN
 90
        0
 91
        1
 62
     0
 92
       -2
340
0
 93
        0
 40
1.125
309
GRIDFORMAT_END
309
TABLEFORMAT_END
  1
CELLSTYLE_BEGIN
 90
        2
 91
        1
300
_HEADER
309
CELLSTYLE_END
300
CELLSTYLE
  1
TABLEFORMAT_BEGIN
 90
        5
170
     1
 91
        0
 92
        0
 62
   257
 93
        1
300
CONTENTFORMAT
  1
CONTENTFORMAT_BEGIN
 90
        0
 91
        0
 92
      512
 93
        0
300

 40
0.0
140
1.0
 94
        2
 62
     0
340
11
144
4.5
309
CONTENTFORMAT_END
171
     1
301
MARGIN
  1
CELLMARGIN_BEGIN
 40
1.5
 40
1.5
 40
1.5
 40
1.5
 40
4.5
 40
4.5
309
CELLMARGIN_END
 94
        6
 95
        1
302
GRIDFORMAT
  1
GRIDFORMAT_BEGIN
 90
        0
 91
        1
 62
     0
 92
       -2
340
0
 93
        0
 40
1.125
309
GRIDFORMAT_END
 95
        2
302
GRIDFORMAT
  1
GRIDFORMAT_BEGIN
 90
        0
 91
        1
 62
     0
 92
       -2
340
0
 93
        0
 40
1.125
309
GRIDFORMAT_END
 95
        4
302
GRIDFORMAT
  1
GRIDFORMAT_BEGIN
 90
        0
 91
        1
 62
     0
 92
       -2
340
0
 93
        0
 40
1.125
309
GRIDFORMAT_END
 95
        8
302
GRIDFORMAT
  1
GRIDFORMAT_BEGIN
 90
        0
 91
        1
 62
     0
 92
       -2
340
0
 93
        0
 40
1.125
309
GRIDFORMAT_END
 95
       16
302
GRIDFORMAT
  1
GRIDFORMAT_BEGIN
 90
        0
 91
        1
 62
     0
 92
       -2
340
0
 93
        0
 40
1.125
309
GRIDFORMAT_END
 95
       32
302
GRIDFORMAT
  1
GRIDFORMAT_BEGIN
 90
        0
 91
        1
 62
     0
 92
       -2
340
0
 93
        0
 40
1.125
309
GRIDFORMAT_END
309
TABLEFORMAT_END
  1
CELLSTYLE_BEGIN
 90
        3
 91
        2
300
_DATA
309
CELLSTYLE_END
  0
XRECORD
  5
9F9
102
{ACAD_REACTORS
330
9D2
102
}
330
9D2
100
AcDbXrecord
280
     1
102
ACAD_ROUNDTRIP_PRE2007_TABLESTYLE
 90
      512
 91
        0
  1

 92
      512
 93
        0
  2

 94
      512
 95
        0
  3

  0
ENDSEC
  0
EOF
