  0
SECTION
  2
HEADER
  9
$ACADVER
  1
AC1021
  9
$ACADMAINTVER
 70
    50
  9
$DWGCODEPAGE
  3
ANSI_1252
  9
$INSBASE
 10
0.0
 20
0.0
 30
0.0
  9
$EXTMIN
 10
1.000000000000000E+20
 20
1.000000000000000E+20
 30
1.000000000000000E+20
  9
$EXTMAX
 10
-1.000000000000000E+20
 20
-1.000000000000000E+20
 30
-1.000000000000000E+20
  9
$LIMMIN
 10
0.0
 20
0.0
  9
$LIMMAX
 10
12.0
 20
9.0
  9
$ORTHOMODE
 70
     0
  9
$REGENMODE
 70
     1
  9
$FILLMODE
 70
     1
  9
$QTEXTMODE
 70
     0
  9
$MIRRTEXT
 70
     1
  9
$LTSCALE
 40
1.0
  9
$ATTMODE
 70
     1
  9
$TEXTSIZE
 40
0.2
  9
$TRACEWID
 40
0.05
  9
$TEXTSTYLE
  7
Standard
  9
$CLAYER
  8
Vorgabe
  9
$CELTYPE
  6
ByLayer
  9
$CECOLOR
 62
   256
  9
$CELTSCALE
 40
1.0
  9
$DISPSILH
 70
     0
  9
$DIMSCALE
 40
1.0
  9
$DIMASZ
 40
0.18
  9
$DIMEXO
 40
0.0625
  9
$DIMDLI
 40
0.38
  9
$DIMRND
 40
0.0
  9
$DIMDLE
 40
0.0
  9
$DIMEXE
 40
0.18
  9
$DIMTP
 40
0.0
  9
$DIMTM
 40
0.0
  9
$DIMTXT
 40
0.18
  9
$DIMCEN
 40
0.09
  9
$DIMTSZ
 40
0.0
  9
$DIMTOL
 70
     0
  9
$DIMLIM
 70
     0
  9
$DIMTIH
 70
     1
  9
$DIMTOH
 70
     1
  9
$DIMSE1
 70
     0
  9
$DIMSE2
 70
     0
  9
$DIMTAD
 70
     0
  9
$DIMZIN
 70
     0
  9
$DIMBLK
  1

  9
$DIMASO
 70
     1
  9
$DIMSHO
 70
     1
  9
$DIMPOST
  1

  9
$DIMAPOST
  1

  9
$DIMALT
 70
     0
  9
$DIMALTD
 70
     2
  9
$DIMALTF
 40
25.4
  9
$DIMLFAC
 40
1.0
  9
$DIMTOFL
 70
     0
  9
$DIMTVP
 40
0.0
  9
$DIMTIX
 70
     0
  9
$DIMSOXD
 70
     0
  9
$DIMSAH
 70
     0
  9
$DIMBLK1
  1

  9
$DIMBLK2
  1

  9
$DIMSTYLE
  2
Standard
  9
$DIMCLRD
 70
     0
  9
$DIMCLRE
 70
     0
  9
$DIMCLRT
 70
     0
  9
$DIMTFAC
 40
1.0
  9
$DIMGAP
 40
0.09
  9
$DIMJUST
 70
     0
  9
$DIMSD1
 70
     0
  9
$DIMSD2
 70
     0
  9
$DIMTOLJ
 70
     1
  9
$DIMTZIN
 70
     0
  9
$DIMALTZ
 70
     0
  9
$DIMALTTZ
 70
     0
  9
$DIMUPT
 70
     0
  9
$DIMDEC
 70
     4
  9
$DIMTDEC
 70
     4
  9
$DIMALTU
 70
     2
  9
$DIMALTTD
 70
     2
  9
$DIMTXSTY
  7
Standard
  9
$DIMAUNIT
 70
     0
  9
$DIMADEC
 70
     0
  9
$DIMALTRND
 40
0.0
  9
$DIMAZIN
 70
     0
  9
$DIMDSEP
 70
    46
  9
$DIMATFIT
 70
     3
  9
$DIMFRAC
 70
     0
  9
$DIMLDRBLK
  1

  9
$DIMLUNIT
 70
     2
  9
$DIMLWD
 70
    -2
  9
$DIMLWE
 70
    -2
  9
$DIMTMOVE
 70
     0
  9
$DIMFXL
 40
1.0
  9
$DIMFXLON
 70
     0
  9
$DIMJOGANG
 40
0.7853981633974483
  9
$DIMTFILL
 70
     0
  9
$DIMTFILLCLR
 70
     0
  9
$DIMARCSYM
 70
     0
  9
$DIMLTYPE
  6

  9
$DIMLTEX1
  6

  9
$DIMLTEX2
  6

  9
$LUNITS
 70
     2
  9
$LUPREC
 70
     4
  9
$SKETCHINC
 40
0.1
  9
$FILLETRAD
 40
0.5
  9
$AUNITS
 70
     0
  9
$AUPREC
 70
     0
  9
$MENU
  1
.
  9
$ELEVATION
 40
0.0
  9
$PELEVATION
 40
0.0
  9
$THICKNESS
 40
0.0
  9
$LIMCHECK
 70
     0
  9
$CHAMFERA
 40
0.5
  9
$CHAMFERB
 40
0.5
  9
$CHAMFERC
 40
1.0
  9
$CHAMFERD
 40
0.0
  9
$SKPOLY
 70
     0
  9
$TDCREATE
 40
2451380.888765729
  9
$TDUCREATE
 40
2451380.805432396
  9
$TDUPDATE
 40
2451380.924513889
  9
$TDUUPDATE
 40
2451380.841180556
  9
$TDINDWG
 40
0.0075627315
  9
$TDUSRTIMER
 40
0.0075536921
  9
$USRTIMER
 70
     1
  9
$ANGBASE
 50
0.0
  9
$ANGDIR
 70
     0
  9
$PDMODE
 70
     0
  9
$PDSIZE
 40
0.0
  9
$PLINEWID
 40
0.0
  9
$SPLFRAME
 70
     0
  9
$SPLINETYPE
 70
     6
  9
$SPLINESEGS
 70
     8
  9
$HANDSEED
  5
3E6
  9
$SURFTAB1
 70
     6
  9
$SURFTAB2
 70
     6
  9
$SURFTYPE
 70
     6
  9
$SURFU
 70
     6
  9
$SURFV
 70
     6
  9
$UCSBASE
  2

  9
$UCSNAME
  2

  9
$UCSORG
 10
0.0
 20
0.0
 30
0.0
  9
$UCSXDIR
 10
1.0
 20
0.0
 30
0.0
  9
$UCSYDIR
 10
0.0
 20
1.0
 30
0.0
  9
$UCSORTHOREF
  2

  9
$UCSORTHOVIEW
 70
     0
  9
$UCSORGTOP
 10
0.0
 20
0.0
 30
0.0
  9
$UCSORGBOTTOM
 10
0.0
 20
0.0
 30
0.0
  9
$UCSORGLEFT
 10
0.0
 20
0.0
 30
0.0
  9
$UCSORGRIGHT
 10
0.0
 20
0.0
 30
0.0
  9
$UCSORGFRONT
 10
0.0
 20
0.0
 30
0.0
  9
$UCSORGBACK
 10
0.0
 20
0.0
 30
0.0
  9
$PUCSBASE
  2

  9
$PUCSNAME
  2

  9
$PUCSORG
 10
0.0
 20
0.0
 30
0.0
  9
$PUCSXDIR
 10
1.0
 20
0.0
 30
0.0
  9
$PUCSYDIR
 10
0.0
 20
1.0
 30
0.0
  9
$PUCSORTHOREF
  2

  9
$PUCSORTHOVIEW
 70
     0
  9
$PUCSORGTOP
 10
0.0
 20
0.0
 30
0.0
  9
$PUCSORGBOTTOM
 10
0.0
 20
0.0
 30
0.0
  9
$PUCSORGLEFT
 10
0.0
 20
0.0
 30
0.0
  9
$PUCSORGRIGHT
 10
0.0
 20
0.0
 30
0.0
  9
$PUCSORGFRONT
 10
0.0
 20
0.0
 30
0.0
  9
$PUCSORGBACK
 10
0.0
 20
0.0
 30
0.0
  9
$USERI1
 70
     0
  9
$USERI2
 70
     0
  9
$USERI3
 70
     0
  9
$USERI4
 70
     0
  9
$USERI5
 70
     0
  9
$USERR1
 40
0.0
  9
$USERR2
 40
0.0
  9
$USERR3
 40
0.0
  9
$USERR4
 40
0.0
  9
$USERR5
 40
0.0
  9
$WORLDVIEW
 70
     1
  9
$SHADEDGE
 70
     3
  9
$SHADEDIF
 70
    70
  9
$TILEMODE
 70
     1
  9
$MAXACTVP
 70
    64
  9
$PINSBASE
 10
0.0
 20
0.0
 30
0.0
  9
$PLIMCHECK
 70
     0
  9
$PEXTMIN
 10
1.000000000000000E+20
 20
1.000000000000000E+20
 30
1.000000000000000E+20
  9
$PEXTMAX
 10
-1.000000000000000E+20
 20
-1.000000000000000E+20
 30
-1.000000000000000E+20
  9
$PLIMMIN
 10
0.0
 20
0.0
  9
$PLIMMAX
 10
12.0
 20
9.0
  9
$UNITMODE
 70
     0
  9
$VISRETAIN
 70
     1
  9
$PLINEGEN
 70
     0
  9
$PSLTSCALE
 70
     1
  9
$TREEDEPTH
 70
  3020
  9
$CMLSTYLE
  2
Standard
  9
$CMLJUST
 70
     0
  9
$CMLSCALE
 40
1.0
  9
$PROXYGRAPHICS
 70
     1
  9
$MEASUREMENT
 70
     1
  9
$CELWEIGHT
370
    -1
  9
$ENDCAPS
280
     0
  9
$JOINSTYLE
280
     0
  9
$LWDISPLAY
290
     0
  9
$INSUNITS
 70
     4
  9
$HYPERLINKBASE
  1

  9
$STYLESHEET
  1

  9
$XEDIT
290
     1
  9
$CEPSNTYPE
380
     0
  9
$PSTYLEMODE
290
     1
  9
$FINGERPRINTGUID
  2
{12F50282-3ED8-11D3-A8B7-0060B0F84BC6}
  9
$VERSIONGUID
  2
{12F50293-3ED8-11D3-A8B7-0060B0F84BC6}
  9
$EXTNAMES
290
     1
  9
$PSVPSCALE
 40
0.0
  9
$OLESTARTUP
290
     0
  9
$SORTENTS
280
   127
  9
$INDEXCTL
280
     0
  9
$HIDETEXT
280
     0
  9
$XCLIPFRAME
290
     0
  9
$HALOGAP
280
     0
  9
$OBSCOLOR
 70
   257
  9
$OBSLTYPE
280
     0
  9
$INTERSECTIONDISPLAY
280
     0
  9
$INTERSECTIONCOLOR
 70
   257
  9
$DIMASSOC
280
     1
  9
$PROJECTNAME
  1

  9
$CAMERADISPLAY
290
     0
  9
$LENSLENGTH
 40
50.0
  9
$CAMERAHEIGHT
 40
0.0
  9
$STEPSPERSEC
 40
2.0
  9
$STEPSIZE
 40
6.0
  9
$3DDWFPREC
 40
2.0
  9
$PSOLWIDTH
 40
0.25
  9
$PSOLHEIGHT
 40
4.0
  9
$LOFTANG1
 40
1.570796326794896
  9
$LOFTANG2
 40
1.570796326794896
  9
$LOFTMAG1
 40
0.0
  9
$LOFTMAG2
 40
0.0
  9
$LOFTPARAM
 70
     7
  9
$LOFTNORMALS
280
     1
  9
$LATITUDE
 40
37.795
  9
$LONGITUDE
 40
-122.394
  9
$NORTHDIRECTION
 40
0.0
  9
$TIMEZONE
 70
 -8000
  9
$LIGHTGLYPHDISPLAY
280
     1
  9
$TILEMODELIGHTSYNCH
280
     1
  9
$CMATERIAL
347
AB
  9
$SOLIDHIST
280
     0
  9
$SHOWHIST
280
     1
  9
$DWFFRAME
280
     2
  9
$DGNFRAME
280
     0
  9
$REALWORLDSCALE
290
     1
  9
$INTERFERECOLOR
 62
     1
  9
$INTERFEREOBJVS
345
CD
  9
$INTERFEREVPVS
346
CA
  9
$CSHADOW
280
     0
  9
$SHADOWPLANELOCATION
 40
0.0
  0
ENDSEC
  0
SECTION
  2
CLASSES
  0
CLASS
  1
ACDBDICTIONARYWDFLT
  2
AcDbDictionaryWithDefault
  3
ObjectDBX Classes
 90
        0
 91
        1
280
     0
281
     0
  0
CLASS
  1
ACDBPLACEHOLDER
  2
AcDbPlaceHolder
  3
ObjectDBX Classes
 90
        0
 91
        2
280
     0
281
     0
  0
CLASS
  1
LAYOUT
  2
AcDbLayout
  3
ObjectDBX Classes
 90
        0
 91
        3
280
     0
281
     0
  0
CLASS
  1
MATERIAL
  2
AcDbMaterial
  3
ObjectDBX Classes
 90
     1153
 91
        3
280
     0
281
     0
  0
CLASS
  1
VISUALSTYLE
  2
AcDbVisualStyle
  3
ObjectDBX Classes
 90
     4095
 91
       24
280
     0
281
     0
  0
CLASS
  1
TABLESTYLE
  2
AcDbTableStyle
  3
ObjectDBX Classes
 90
     4095
 91
        1
280
     0
281
     0
  0
CLASS
  1
SCALE
  2
AcDbScale
  3
ObjectDBX Classes
 90
     1153
 91
       17
280
     0
281
     0
  0
CLASS
  1
MLEADERSTYLE
  2
AcDbMLeaderStyle
  3
ACDB_MLEADERSTYLE_CLASS
 90
     4095
 91
        1
280
     0
281
     0
  0
CLASS
  1
ACDBSECTIONVIEWSTYLE
  2
AcDbSectionViewStyle
  3
ObjectDBX Classes
 90
     1025
 91
        1
280
     0
281
     0
  0
CLASS
  1
ACDBDETAILVIEWSTYLE
  2
AcDbDetailViewStyle
  3
ObjectDBX Classes
 90
     1025
 91
        1
280
     0
281
     0
  0
CLASS
  1
DICTIONARYVAR
  2
AcDbDictionaryVar
  3
ObjectDBX Classes
 90
        0
 91
       10
280
     0
281
     0
  0
CLASS
  1
CELLSTYLEMAP
  2
AcDbCellStyleMap
  3
ObjectDBX Classes
 90
     1152
 91
        1
280
     0
281
     0
  0
ENDSEC
  0
SECTION
  2
TABLES
  0
TABLE
  2
VPORT
  5
8
330
0
100
AcDbSymbolTable
 70
     1
  0
VPORT
  5
A8
330
8
100
AcDbSymbolTableRecord
100
AcDbViewportTableRecord
  2
*Active
 70
     0
 10
0.0
 20
0.0
 11
1.0
 21
1.0
 12
-448.0766296386718
 22
1157.74169921875
 13
0.0
 23
0.0
 14
0.5
 24
0.5
 15
0.5
 25
0.5
 16
-1.0
 26
-1.0
 36
1.0
 17
0.0
 27
0.0
 37
0.0
 40
2985.125862101288
 41
0.4542748716183703
 42
50.0
 43
0.0
 44
0.0
 50
0.0
 51
0.0
 71
     0
 72
   100
 73
     1
 74
     3
 75
     0
 76
     0
 77
     0
 78
     0
281
     0
 65
     1
110
0.0
120
0.0
130
0.0
111
1.0
121
0.0
131
0.0
112
0.0
122
1.0
132
0.0
 79
     0
146
0.0
348
C9
 60
     3
 61
     5
292
     1
282
     1
141
0.0
142
0.0
 63
   250
421
  3355443
  0
ENDTAB
  0
TABLE
  2
LTYPE
  5
5
330
0
100
AcDbSymbolTable
 70
     1
  0
LTYPE
  5
14
330
5
100
AcDbSymbolTableRecord
100
AcDbLinetypeTableRecord
  2
ByBlock
 70
     0
  3

 72
    65
 73
     0
 40
0.0
  0
LTYPE
  5
15
330
5
100
AcDbSymbolTableRecord
100
AcDbLinetypeTableRecord
  2
ByLayer
 70
     0
  3

 72
    65
 73
     0
 40
0.0
  0
LTYPE
  5
16
330
5
100
AcDbSymbolTableRecord
100
AcDbLinetypeTableRecord
  2
Continuous
 70
     0
  3
Solid line
 72
    65
 73
     0
 40
0.0
  0
ENDTAB
  0
TABLE
  2
LAYER
  5
2
330
0
100
AcDbSymbolTable
 70
     5
  0
LAYER
  5
10
330
2
100
AcDbSymbolTableRecord
100
AcDbLayerTableRecord
  2
0
 70
     0
 62
     7
  6
Continuous
370
    -3
390
F
347
BB
  0
LAYER
  5
2B
330
2
100
AcDbSymbolTableRecord
100
AcDbLayerTableRecord
  2
ASHADE
 70
     4
 62
     7
  6
Continuous
370
    -3
390
2D
347
BB
  0
LAYER
  5
F9
330
2
100
AcDbSymbolTableRecord
100
AcDbLayerTableRecord
  2
Si40 Alu matt
 70
     0
 62
   141
420
 10147813
  6
Continuous
370
    -3
390
F
347
BB
  0
LAYER
  5
FA
330
2
100
AcDbSymbolTableRecord
100
AcDbLayerTableRecord
  2
Si90 Lampe weiss
 70
     0
 62
   191
420
 12098533
  6
Continuous
370
    -3
390
F
347
BB
  0
LAYER
  5
FB
330
2
100
AcDbSymbolTableRecord
100
AcDbLayerTableRecord
  2
Vorgabe
 70
     0
 62
   201
420
 13998821
  6
Continuous
370
    -3
390
F
347
BB
  0
ENDTAB
  0
TABLE
  2
STYLE
  5
3
330
0
100
AcDbSymbolTable
 70
     2
  0
STYLE
  5
11
330
3
100
AcDbSymbolTableRecord
100
AcDbTextStyleTableRecord
  2
Standard
 70
     0
 40
0.0
 41
1.0
 50
0.0
 71
     0
 42
0.2
  3
txt
  4

  0
STYLE
  5
2C
330
3
100
AcDbSymbolTableRecord
100
AcDbTextStyleTableRecord
  2
ASHADE
 70
     0
 40
0.2
 41
1.0
 50
0.0
 71
     0
 42
0.2
  3
simplex
  4

  0
ENDTAB
  0
TABLE
  2
VIEW
  5
6
330
0
100
AcDbSymbolTable
 70
     0
  0
ENDTAB
  0
TABLE
  2
UCS
  5
7
330
0
100
AcDbSymbolTable
 70
     0
  0
ENDTAB
  0
TABLE
  2
APPID
  5
9
330
0
100
AcDbSymbolTable
 70
     7
  0
APPID
  5
12
330
9
100
AcDbSymbolTableRecord
100
AcDbRegAppTableRecord
  2
ACAD
 70
     0
  0
APPID
  5
8F
330
9
100
AcDbSymbolTableRecord
100
AcDbRegAppTableRecord
  2
AVE_RENDER
 70
     0
  0
APPID
  5
90
330
9
100
AcDbSymbolTableRecord
100
AcDbRegAppTableRecord
  2
AVE_ENTITY_MATERIAL
 70
     0
  0
APPID
  5
9C
330
9
100
AcDbSymbolTableRecord
100
AcDbRegAppTableRecord
  2
AVE_FINISH
 70
     0
  0
APPID
  5
9D
330
9
100
AcDbSymbolTableRecord
100
AcDbRegAppTableRecord
  2
AVE_MATERIAL
 70
     0
  0
APPID
  5
9E
330
9
100
AcDbSymbolTableRecord
100
AcDbRegAppTableRecord
  2
AVE_GLOBAL
 70
     0
  0
APPID
  5
3DF
330
9
100
AcDbSymbolTableRecord
100
AcDbRegAppTableRecord
  2
ACAD_MLEADERVER
 70
     0
  0
ENDTAB
  0
TABLE
  2
DIMSTYLE
  5
A
330
0
100
AcDbSymbolTable
 70
     1
100
AcDbDimStyleTable
 71
     0
  0
DIMSTYLE
105
27
330
A
100
AcDbSymbolTableRecord
100
AcDbDimStyleTableRecord
  2
Standard
 70
     0
340
11
  0
ENDTAB
  0
TABLE
  2
BLOCK_RECORD
  5
1
330
0
100
AcDbSymbolTable
 70
     6
  0
BLOCK_RECORD
  5
1F
330
1
100
AcDbSymbolTableRecord
100
AcDbBlockTableRecord
  2
*Model_Space
340
22
 70
     0
280
     1
281
     0
  0
BLOCK_RECORD
  5
1B
330
1
100
AcDbSymbolTableRecord
100
AcDbBlockTableRecord
  2
*Paper_Space
340
1E
 70
     0
280
     1
281
     0
  0
BLOCK_RECORD
  5
23
330
1
100
AcDbSymbolTableRecord
100
AcDbBlockTableRecord
  2
*Paper_Space0
340
26
 70
     0
280
     1
281
     0
  0
BLOCK_RECORD
  5
2E
330
1
100
AcDbSymbolTableRecord
100
AcDbBlockTableRecord
  2
direct
340
0
 70
     0
280
     1
281
     0
  0
BLOCK_RECORD
  5
42
330
1
100
AcDbSymbolTableRecord
100
AcDbBlockTableRecord
  2
overhead
340
0
 70
     0
280
     1
281
     0
  0
BLOCK_RECORD
  5
5F
330
1
100
AcDbSymbolTableRecord
100
AcDbBlockTableRecord
  2
sh_spot
340
0
 70
     0
280
     1
281
     0
  0
BLOCK_RECORD
  5
91
330
1
100
AcDbSymbolTableRecord
100
AcDbBlockTableRecord
  2
AVE_RENDER
340
0
102
{BLKREFS
331
94
331
95
331
96
331
97
331
98
331
99
331
9A
331
9B
102
}
 70
     0
280
     1
281
     0
  0
BLOCK_RECORD
  5
9F
330
1
100
AcDbSymbolTableRecord
100
AcDbBlockTableRecord
  2
AVE_GLOBAL
340
0
102
{BLKREFS
331
A2
102
}
 70
     0
280
     1
281
     0
  0
ENDTAB
  0
ENDSEC
  0
SECTION
  2
BLOCKS
  0
BLOCK
  5
20
330
1F
100
AcDbEntity
  8
0
100
AcDbBlockBegin
  2
*Model_Space
 70
     0
 10
0.0
 20
0.0
 30
0.0
  3
*Model_Space
  1

  0
ENDBLK
  5
21
330
1F
100
AcDbEntity
  8
0
100
AcDbBlockEnd
  0
BLOCK
  5
1C
330
1B
100
AcDbEntity
 67
     1
  8
0
100
AcDbBlockBegin
  2
*Paper_Space
 70
     0
 10
0.0
 20
0.0
 30
0.0
  3
*Paper_Space
  1

  0
ENDBLK
  5
1D
330
1B
100
AcDbEntity
 67
     1
  8
0
100
AcDbBlockEnd
  0
BLOCK
  5
24
330
23
100
AcDbEntity
 67
     1
  8
0
100
AcDbBlockBegin
  2
*Paper_Space0
 70
     0
 10
0.0
 20
0.0
 30
0.0
  3
*Paper_Space0
  1

  0
ENDBLK
  5
25
330
23
100
AcDbEntity
 67
     1
  8
0
100
AcDbBlockEnd
  0
BLOCK
  5
40
330
2E
100
AcDbEntity
  8
0
100
AcDbBlockBegin
  2
direct
 70
     2
 10
0.0
 20
0.0
 30
0.0
  3
direct
  1

  0
ATTDEF
  5
2F
330
2E
100
AcDbEntity
  8
ASHADE
  6
Continuous
 62
     1
100
AcDbText
 10
0.0
 20
-0.1
 30
0.0
 40
0.2
  1

  7
ASHADE
 72
     1
 11
0.0
 21
-0.1
 31
0.0
100
AcDbAttributeDefinition
  3
Light Name
  2
SNAME
 70
     0
280
     0
  0
ARC
  5
30
330
2E
100
AcDbEntity
  8
ASHADE
  6
Continuous
 62
     7
100
AcDbCircle
 10
0.0
 20
0.0
 30
0.0
 40
0.3
100
AcDbArc
 50
205.6792886194569
 51
334.3207113805431
  0
ARC
  5
31
330
2E
100
AcDbEntity
  8
ASHADE
  6
Continuous
 62
     7
100
AcDbCircle
 10
0.0
 20
0.0
 30
0.0
 40
0.3
100
AcDbArc
 50
25.67928861945685
 51
154.3207113805431
  0
LINE
  5
32
330
2E
100
AcDbEntity
  8
ASHADE
  6
Continuous
 62
     7
100
AcDbLine
 10
-0.21
 20
0.2142428528562855
 30
0.0
 11
-0.21
 21
0.5
 31
0.0
  0
LINE
  5
33
330
2E
100
AcDbEntity
  8
ASHADE
  6
Continuous
 62
     7
100
AcDbLine
 10
-0.11
 20
0.2791057147390572
 30
0.0
 11
-0.11
 21
0.5
 31
0.0
  0
LINE
  5
34
330
2E
100
AcDbEntity
  8
ASHADE
  6
Continuous
 62
     7
100
AcDbLine
 10
0.21
 20
0.2142428528562855
 30
0.0
 11
0.21
 21
0.5
 31
0.0
  0
ATTDEF
  5
35
330
2E
100
AcDbEntity
  8
ASHADE
  6
Continuous
 62
     7
100
AcDbText
 10
0.0
 20
0.25
 30
0.0
 40
0.01
  1

100
AcDbAttributeDefinition
  3
Look-at Y
  2
LAY
 70
     1
280
     0
  0
ATTDEF
  5
36
330
2E
100
AcDbEntity
  8
ASHADE
  6
Continuous
 62
     7
100
AcDbText
 10
0.0
 20
0.22
 30
0.0
 40
0.01
  1
1
100
AcDbAttributeDefinition
  3
Light Intensity
  2
INTENSITY
 70
     1
280
     0
  0
ATTDEF
  5
37
330
2E
100
AcDbEntity
  8
ASHADE
  6
Continuous
 62
     7
100
AcDbText
 10
0.0
 20
0.16
 30
0.0
 40
0.01
  1
-1
100
AcDbAttributeDefinition
  3
*not used*
  2
BEAMD
 70
     1
280
     0
  0
ATTDEF
  5
38
330
2E
100
AcDbEntity
  8
ASHADE
  6
Continuous
 62
     7
100
AcDbText
 10
0.0
 20
0.175
 30
0.0
 40
0.01
  1
-1
100
AcDbAttributeDefinition
  3
*not used*
  2
CONED
 70
     1
280
     0
  0
ATTDEF
  5
39
330
2E
100
AcDbEntity
  8
ASHADE
  6
Continuous
 62
     7
100
AcDbText
 10
0.0
 20
0.19
 30
0.0
 40
0.01
  1
0
100
AcDbAttributeDefinition
  3
Depth Map Size
  2
CONEA
 70
     1
280
     0
  0
ATTDEF
  5
3A
330
2E
100
AcDbEntity
  8
ASHADE
  6
Continuous
 62
     7
100
AcDbText
 10
0.0
 20
0.2050000000000001
 30
0.0
 40
0.01
  1
1,1,1
100
AcDbAttributeDefinition
  3
Light Color (RGB)
  2
COLOR
 70
     1
280
     0
  0
ATTDEF
  5
3B
330
2E
100
AcDbEntity
  8
ASHADE
  6
Continuous
 62
     7
100
AcDbText
 10
0.0
 20
0.235
 30
0.0
 40
0.01
  1

100
AcDbAttributeDefinition
  3
Look-at Z
  2
LAZ
 70
     1
280
     0
  0
LINE
  5
3C
330
2E
100
AcDbEntity
  8
ASHADE
  6
Continuous
 62
     7
100
AcDbLine
 10
0.0
 20
0.3
 30
0.0
 11
0.0
 21
0.5
 31
0.0
  0
LINE
  5
3D
330
2E
100
AcDbEntity
  8
ASHADE
  6
Continuous
 62
     7
100
AcDbLine
 10
0.11
 20
0.2791057147390572
 30
0.0
 11
0.11
 21
0.5
 31
0.0
  0
ATTDEF
  5
3E
330
2E
100
AcDbEntity
  8
ASHADE
  6
Continuous
 62
     7
100
AcDbText
 10
0.0
 20
0.265
 30
0.0
 40
0.01
  1

100
AcDbAttributeDefinition
  3
Look-at X
  2
LAX
 70
     1
280
     0
  0
ATTDEF
  5
3F
330
2E
100
AcDbEntity
  8
ASHADE
  6
Continuous
 62
     7
100
AcDbText
 10
0.0
 20
0.28
 30
0.0
 40
0.01
  1

100
AcDbAttributeDefinition
  3

  2
GNAME
 70
     1
280
     0
  0
ENDBLK
  5
41
330
2E
100
AcDbEntity
  8
0
100
AcDbBlockEnd
  0
BLOCK
  5
5D
330
42
100
AcDbEntity
  8
0
100
AcDbBlockBegin
  2
overhead
 70
     2
 10
0.0
 20
0.0
 30
0.0
  3
overhead
  1

  0
ATTDEF
  5
43
330
42
100
AcDbEntity
  8
ASHADE
  6
Continuous
 62
     1
100
AcDbText
 10
0.0
 20
-0.1
 30
0.0
 40
0.2
  1

  7
ASHADE
 72
     1
 11
0.0
 21
-0.1
 31
0.0
100
AcDbAttributeDefinition
  3
Light Name
  2
SNAME
 70
     0
280
     0
  0
ARC
  5
44
330
42
100
AcDbEntity
  8
ASHADE
  6
Continuous
 62
     7
100
AcDbCircle
 10
0.0
 20
0.0
 30
0.0
 40
0.3
100
AcDbArc
 50
205.6792886194569
 51
334.3207113805431
  0
LINE
  5
45
330
42
100
AcDbEntity
  8
ASHADE
  6
Continuous
 62
     7
100
AcDbLine
 10
-0.2041413561583015
 20
-0.2198324514393848
 30
0.0
 11
-0.2721884748777353
 21
-0.2931099352525131
 31
0.0
  0
LINE
  5
46
330
42
100
AcDbEntity
  8
ASHADE
  6
Continuous
 62
     7
100
AcDbLine
 10
-0.1096591641591904
 20
-0.2792398032442862
 30
0.0
 11
-0.1279356915190555
 21
-0.3257797704516673
 31
0.0
  0
LINE
  5
47
330
42
100
AcDbEntity
  8
ASHADE
  6
Continuous
 62
     7
100
AcDbLine
 10
0.0
 20
-0.2999999999999999
 30
0.0
 11
0.0
 21
-0.4
 31
0.0
  0
LINE
  5
48
330
42
100
AcDbEntity
  8
ASHADE
  6
Continuous
 62
     7
100
AcDbLine
 10
0.1096591641591904
 20
-0.2792398032442862
 30
0.0
 11
0.1279356915190555
 21
-0.3257797704516673
 31
0.0
  0
LINE
  5
49
330
42
100
AcDbEntity
  8
ASHADE
  6
Continuous
 62
     7
100
AcDbLine
 10
0.2041413561583015
 20
-0.2198324514393848
 30
0.0
 11
0.2721884748777353
 21
-0.2931099352525131
 31
0.0
  0
ARC
  5
4A
330
42
100
AcDbEntity
  8
ASHADE
  6
Continuous
 62
     7
100
AcDbCircle
 10
0.0
 20
0.0
 30
0.0
 40
0.3
100
AcDbArc
 50
25.67928861945685
 51
154.3207113805431
  0
LINE
  5
4B
330
42
100
AcDbEntity
  8
ASHADE
  6
Continuous
 62
     7
100
AcDbLine
 10
-0.2703701166919155
 20
0.13
 30
0.0
 11
-0.3154318028072347
 21
0.1516666666666666
 31
0.0
  0
LINE
  5
4C
330
42
100
AcDbEntity
  8
ASHADE
  6
Continuous
 62
     7
100
AcDbLine
 10
-0.2703701166919155
 20
-0.13
 30
0.0
 11
-0.3154318028072347
 21
-0.1516666666666666
 31
0.0
  0
LINE
  5
4D
330
42
100
AcDbEntity
  8
ASHADE
  6
Continuous
 62
     7
100
AcDbLine
 10
-0.2041413561583015
 20
0.2198324514393849
 30
0.0
 11
-0.2721884748777353
 21
0.2931099352525131
 31
0.0
  0
LINE
  5
4E
330
42
100
AcDbEntity
  8
ASHADE
  6
Continuous
 62
     7
100
AcDbLine
 10
-0.1096591641591904
 20
0.2792398032442862
 30
0.0
 11
-0.1279356915190555
 21
0.3257797704516674
 31
0.0
  0
LINE
  5
4F
330
42
100
AcDbEntity
  8
ASHADE
  6
Continuous
 62
     7
100
AcDbLine
 10
0.2703701166919155
 20
-0.13
 30
0.0
 11
0.3154318028072347
 21
-0.1516666666666666
 31
0.0
  0
LINE
  5
50
330
42
100
AcDbEntity
  8
ASHADE
  6
Continuous
 62
     7
100
AcDbLine
 10
0.2703701166919155
 20
0.13
 30
0.0
 11
0.3154318028072347
 21
0.1516666666666666
 31
0.0
  0
LINE
  5
51
330
42
100
AcDbEntity
  8
ASHADE
  6
Continuous
 62
     7
100
AcDbLine
 10
0.0
 20
0.3
 30
0.0
 11
0.0
 21
0.4
 31
0.0
  0
ATTDEF
  5
52
330
42
100
AcDbEntity
  8
ASHADE
  6
Continuous
 62
     7
100
AcDbText
 10
0.0
 20
0.22
 30
0.0
 40
0.01
  1
1
100
AcDbAttributeDefinition
  3
Light Intensity
  2
INTENSITY
 70
     1
280
     0
  0
ATTDEF
  5
53
330
42
100
AcDbEntity
  8
ASHADE
  6
Continuous
 62
     7
100
AcDbText
 10
0.0
 20
0.16
 30
0.0
 40
0.01
  1
-1
100
AcDbAttributeDefinition
  3
*not used*
  2
BEAMD
 70
     1
280
     0
  0
ATTDEF
  5
54
330
42
100
AcDbEntity
  8
ASHADE
  6
Continuous
 62
     7
100
AcDbText
 10
0.0
 20
0.175
 30
0.0
 40
0.01
  1
-1
100
AcDbAttributeDefinition
  3
*not used*
  2
CONED
 70
     1
280
     0
  0
ATTDEF
  5
55
330
42
100
AcDbEntity
  8
ASHADE
  6
Continuous
 62
     7
100
AcDbText
 10
0.0
 20
0.19
 30
0.0
 40
0.01
  1
0
100
AcDbAttributeDefinition
  3
Depth Map Size
  2
CONEA
 70
     1
280
     0
  0
ATTDEF
  5
56
330
42
100
AcDbEntity
  8
ASHADE
  6
Continuous
 62
     7
100
AcDbText
 10
0.0
 20
0.2050000000000001
 30
0.0
 40
0.01
  1
1,1,1
100
AcDbAttributeDefinition
  3
Light Color (RGB)
  2
COLOR
 70
     1
280
     0
  0
ATTDEF
  5
57
330
42
100
AcDbEntity
  8
ASHADE
  6
Continuous
 62
     7
100
AcDbText
 10
0.0
 20
0.235
 30
0.0
 40
0.01
  1

100
AcDbAttributeDefinition
  3
Look-at Z
  2
LAZ
 70
     1
280
     0
  0
ATTDEF
  5
58
330
42
100
AcDbEntity
  8
ASHADE
  6
Continuous
 62
     7
100
AcDbText
 10
0.0
 20
0.25
 30
0.0
 40
0.01
  1

100
AcDbAttributeDefinition
  3
Look-at Y
  2
LAY
 70
     1
280
     0
  0
ATTDEF
  5
59
330
42
100
AcDbEntity
  8
ASHADE
  6
Continuous
 62
     7
100
AcDbText
 10
0.0
 20
0.265
 30
0.0
 40
0.01
  1

100
AcDbAttributeDefinition
  3
Look-at X
  2
LAX
 70
     1
280
     0
  0
ATTDEF
  5
5A
330
42
100
AcDbEntity
  8
ASHADE
  6
Continuous
 62
     7
100
AcDbText
 10
0.0
 20
0.28
 30
0.0
 40
0.01
  1

100
AcDbAttributeDefinition
  3

  2
GNAME
 70
     1
280
     0
  0
LINE
  5
5B
330
42
100
AcDbEntity
  8
ASHADE
  6
Continuous
 62
     7
100
AcDbLine
 10
0.1096591641591904
 20
0.2792398032442862
 30
0.0
 11
0.1279356915190555
 21
0.3257797704516674
 31
0.0
  0
LINE
  5
5C
330
42
100
AcDbEntity
  8
ASHADE
  6
Continuous
 62
     7
100
AcDbLine
 10
0.2041413561583015
 20
0.2198324514393849
 30
0.0
 11
0.2721884748777353
 21
0.2931099352525131
 31
0.0
  0
ENDBLK
  5
5E
330
42
100
AcDbEntity
  8
0
100
AcDbBlockEnd
  0
BLOCK
  5
85
330
5F
100
AcDbEntity
  8
0
100
AcDbBlockBegin
  2
sh_spot
 70
     2
 10
0.0
 20
0.0
 30
0.0
  3
sh_spot
  1

  0
LINE
  5
60
330
5F
100
AcDbEntity
  8
ASHADE
  6
Continuous
 62
     7
100
AcDbLine
 10
0.25
 20
0.26
 30
0.0
 11
-0.25
 21
0.26
 31
0.0
  0
LINE
  5
61
330
5F
100
AcDbEntity
  8
ASHADE
  6
Continuous
 62
     7
100
AcDbLine
 10
-0.25
 20
-0.3399999999999999
 30
0.0
 11
0.25
 21
-0.3399999999999999
 31
0.0
  0
ATTDEF
  5
62
330
5F
100
AcDbEntity
  8
ASHADE
  6
Continuous
 62
     1
100
AcDbText
 10
0.0
 20
-0.1
 30
0.0
 40
0.2
  1

  7
ASHADE
 72
     1
 11
0.0
 21
-0.1
 31
0.0
100
AcDbAttributeDefinition
  3
Light Name
  2
SNAME
 70
     0
280
     0
  0
LINE
  5
63
330
5F
100
AcDbEntity
  8
ASHADE
  6
Continuous
 62
     7
100
AcDbLine
 10
-0.25
 20
-0.13
 30
0.0
 11
-0.25
 21
-0.3399999999999999
 31
0.0
  0
LINE
  5
64
330
5F
100
AcDbEntity
  8
ASHADE
  6
Continuous
 62
     7
100
AcDbLine
 10
-0.25
 20
-0.18
 30
0.0
 11
-0.29
 21
-0.18
 31
0.0
  0
LINE
  5
65
330
5F
100
AcDbEntity
  8
ASHADE
  6
Continuous
 62
     7
100
AcDbLine
 10
-0.29
 20
-0.22
 30
0.0
 11
-0.25
 21
-0.22
 31
0.0
  0
LINE
  5
66
330
5F
100
AcDbEntity
  8
ASHADE
  6
Continuous
 62
     7
100
AcDbLine
 10
-0.29
 20
-0.18
 30
0.0
 11
-0.29
 21
-0.22
 31
0.0
  0
LINE
  5
67
330
5F
100
AcDbEntity
  8
ASHADE
  6
Continuous
 62
     7
100
AcDbLine
 10
-0.1045454545454545
 20
0.26
 30
0.0
 11
-0.15
 21
0.46
 31
0.0
  0
LINE
  5
68
330
5F
100
AcDbEntity
  8
ASHADE
  6
Continuous
 62
     7
100
AcDbLine
 10
-0.21
 20
0.26
 30
0.0
 11
-0.301304347826087
 21
0.46
 31
0.0
  0
LINE
  5
69
330
5F
100
AcDbEntity
  8
ASHADE
  6
Continuous
 62
     7
100
AcDbLine
 10
-0.25
 20
0.26
 30
0.0
 11
-0.25
 21
0.13
 31
0.0
  0
LINE
  5
6A
330
5F
100
AcDbEntity
  8
ASHADE
  6
Continuous
 62
     7
100
AcDbLine
 10
-0.25
 20
0.22
 30
0.0
 11
-0.29
 21
0.22
 31
0.0
  0
LINE
  5
6B
330
5F
100
AcDbEntity
  8
ASHADE
  6
Continuous
 62
     7
100
AcDbLine
 10
-0.29
 20
0.1799999999999999
 30
0.0
 11
-0.25
 21
0.1799999999999999
 31
0.0
  0
LINE
  5
6C
330
5F
100
AcDbEntity
  8
ASHADE
  6
Continuous
 62
     7
100
AcDbLine
 10
-0.29
 20
0.22
 30
0.0
 11
-0.29
 21
0.1799999999999999
 31
0.0
  0
ATTDEF
  5
6D
330
5F
100
AcDbEntity
  8
ASHADE
  6
Continuous
 62
     7
100
AcDbText
 10
0.0
 20
-0.24
 30
0.0
 40
0.01
  1
0
100
AcDbAttributeDefinition
  3
Depth Map Size
  2
ZSIZE
 70
     1
280
     0
  0
ATTDEF
  5
6E
330
5F
100
AcDbEntity
  8
ASHADE
  6
Continuous
 62
     7
100
AcDbText
 10
0.0
 20
-0.3300000000000001
 30
0.0
 40
0.01
  1
0,0,0
100
AcDbAttributeDefinition
  3
Look-from XYZ
  2
LFXYZ
 70
     1
280
     0
  0
ATTDEF
  5
6F
330
5F
100
AcDbEntity
  8
ASHADE
  6
Continuous
 62
     7
100
AcDbText
 10
0.0
 20
-0.315
 30
0.0
 40
0.01
  1
0.0
100
AcDbAttributeDefinition
  3
Beam Distribution
  2
BEAMDI
 70
     1
280
     0
  0
ATTDEF
  5
70
330
5F
100
AcDbEntity
  8
ASHADE
  6
Continuous
 62
     7
100
AcDbText
 10
0.0
 20
-0.3
 30
0.0
 40
0.01
  1
0.0
100
AcDbAttributeDefinition
  3
Cone Delta
  2
CONEDE
 70
     1
280
     0
  0
ATTDEF
  5
71
330
5F
100
AcDbEntity
  8
ASHADE
  6
Continuous
 62
     7
100
AcDbText
 10
0.0
 20
-0.2850000000000001
 30
0.0
 40
0.01
  1
10.0
100
AcDbAttributeDefinition
  3
Cone Angle
  2
CONEAN
 70
     1
280
     0
  0
ATTDEF
  5
72
330
5F
100
AcDbEntity
  8
ASHADE
  6
Continuous
 62
     7
100
AcDbText
 10
0.0
 20
-0.27
 30
0.0
 40
0.01
  1
-1
100
AcDbAttributeDefinition
  3
*not used*
  2
BIASMAX
 70
     1
280
     0
  0
ATTDEF
  5
73
330
5F
100
AcDbEntity
  8
ASHADE
  6
Continuous
 62
     7
100
AcDbText
 10
0.0
 20
-0.255
 30
0.0
 40
0.01
  1
-1
100
AcDbAttributeDefinition
  3
*not used*
  2
BIASMIN
 70
     1
280
     0
  0
ATTDEF
  5
74
330
5F
100
AcDbEntity
  8
ASHADE
  6
Continuous
 62
     7
100
AcDbText
 10
0.0
 20
-0.225
 30
0.0
 40
0.01
  1
1,1,1
100
AcDbAttributeDefinition
  3
Light Color (RGB)
  2
COLOR
 70
     1
280
     0
  0
ATTDEF
  5
75
330
5F
100
AcDbEntity
  8
ASHADE
  6
Continuous
 62
     7
100
AcDbText
 10
0.0
 20
-0.21
 30
0.0
 40
0.01
  1
1
100
AcDbAttributeDefinition
  3
Light Intensity
  2
INTENSITY
 70
     1
280
     0
  0
ATTDEF
  5
76
330
5F
100
AcDbEntity
  8
ASHADE
  6
Continuous
 62
     7
100
AcDbText
 10
0.0
 20
-0.15
 30
0.0
 40
0.01
  1

100
AcDbAttributeDefinition
  3

  2
GNAME
 70
     1
280
     0
  0
ATTDEF
  5
77
330
5F
100
AcDbEntity
  8
ASHADE
  6
Continuous
 62
     7
100
AcDbText
 10
0.0
 20
-0.195
 30
0.0
 40
0.01
  1

100
AcDbAttributeDefinition
  3
Look-at Z
  2
LAZ
 70
     1
280
     0
  0
ATTDEF
  5
78
330
5F
100
AcDbEntity
  8
ASHADE
  6
Continuous
 62
     7
100
AcDbText
 10
0.0
 20
-0.18
 30
0.0
 40
0.01
  1

100
AcDbAttributeDefinition
  3
Look-at Y
  2
LAY
 70
     1
280
     0
  0
ATTDEF
  5
79
330
5F
100
AcDbEntity
  8
ASHADE
  6
Continuous
 62
     7
100
AcDbText
 10
0.0
 20
-0.165
 30
0.0
 40
0.01
  1

100
AcDbAttributeDefinition
  3
Look-at X
  2
LAX
 70
     1
280
     0
  0
LINE
  5
7A
330
5F
100
AcDbEntity
  8
ASHADE
  6
Continuous
 62
     7
100
AcDbLine
 10
0.25
 20
-0.3399999999999999
 30
0.0
 11
0.25
 21
-0.13
 31
0.0
  0
LINE
  5
7B
330
5F
100
AcDbEntity
  8
ASHADE
  6
Continuous
 62
     7
100
AcDbLine
 10
0.25
 20
-0.18
 30
0.0
 11
0.29
 21
-0.18
 31
0.0
  0
LINE
  5
7C
330
5F
100
AcDbEntity
  8
ASHADE
  6
Continuous
 62
     7
100
AcDbLine
 10
0.29
 20
-0.22
 30
0.0
 11
0.25
 21
-0.22
 31
0.0
  0
LINE
  5
7D
330
5F
100
AcDbEntity
  8
ASHADE
  6
Continuous
 62
     7
100
AcDbLine
 10
0.29
 20
-0.18
 30
0.0
 11
0.29
 21
-0.22
 31
0.0
  0
LINE
  5
7E
330
5F
100
AcDbEntity
  8
ASHADE
  6
Continuous
 62
     7
100
AcDbLine
 10
0.21
 20
0.26
 30
0.0
 11
0.301304347826087
 21
0.46
 31
0.0
  0
LINE
  5
7F
330
5F
100
AcDbEntity
  8
ASHADE
  6
Continuous
 62
     7
100
AcDbLine
 10
0.1045454545454545
 20
0.26
 30
0.0
 11
0.15
 21
0.46
 31
0.0
  0
LINE
  5
80
330
5F
100
AcDbEntity
  8
ASHADE
  6
Continuous
 62
     7
100
AcDbLine
 10
0.0
 20
0.26
 30
0.0
 11
0.0
 21
0.46
 31
0.0
  0
LINE
  5
81
330
5F
100
AcDbEntity
  8
ASHADE
  6
Continuous
 62
     7
100
AcDbLine
 10
0.25
 20
0.13
 30
0.0
 11
0.25
 21
0.26
 31
0.0
  0
LINE
  5
82
330
5F
100
AcDbEntity
  8
ASHADE
  6
Continuous
 62
     7
100
AcDbLine
 10
0.25
 20
0.22
 30
0.0
 11
0.29
 21
0.22
 31
0.0
  0
LINE
  5
83
330
5F
100
AcDbEntity
  8
ASHADE
  6
Continuous
 62
     7
100
AcDbLine
 10
0.29
 20
0.1799999999999999
 30
0.0
 11
0.25
 21
0.1799999999999999
 31
0.0
  0
LINE
  5
84
330
5F
100
AcDbEntity
  8
ASHADE
  6
Continuous
 62
     7
100
AcDbLine
 10
0.29
 20
0.22
 30
0.0
 11
0.29
 21
0.1799999999999999
 31
0.0
  0
ENDBLK
  5
86
330
5F
100
AcDbEntity
  8
0
100
AcDbBlockEnd
  0
BLOCK
  5
92
330
91
100
AcDbEntity
  8
ASHADE
100
AcDbBlockBegin
  2
AVE_RENDER
 70
     0
 10
0.0
 20
0.0
 30
0.0
  3
AVE_RENDER
  1
AVE_RENDER
  0
ENDBLK
  5
93
330
91
100
AcDbEntity
  8
0
100
AcDbBlockEnd
  0
BLOCK
  5
A0
330
9F
100
AcDbEntity
  8
ASHADE
100
AcDbBlockBegin
  2
AVE_GLOBAL
 70
     0
 10
0.0
 20
0.0
 30
0.0
  3
AVE_GLOBAL
  1
AVE_GLOBAL
  0
ENDBLK
  5
A1
330
9F
100
AcDbEntity
  8
0
100
AcDbBlockEnd
  0
ENDSEC
  0
SECTION
  2
ENTITIES
  0
INSERT
  5
94
330
1F
100
AcDbEntity
  8
ASHADE
 62
     1
100
AcDbBlockReference
  2
AVE_RENDER
 10
0.0
 20
0.0
 30
0.0
1001
AVE_RENDER
1002
{
1070
     7
1000
Pref
1070
    30
1070
    20
1070
     1
1070
     0
1000

1070
    10
1070
     1
1070
    10
1040
1.0
1070
     1
1040
0.3
1040
0.7
1040
0.0
1040
10.0
1010
-1.0
1020
-1.0
1030
-1.0
1040
0.3
1070
    49
1070
     0
1070
     0
1010
1.0
1020
1.0
1030
1.0
1040
45.0
1070
     1
1070
     0
1000
WCS
1040
0.0
1070
     0
1040
10.0
1002
}
  0
INSERT
  5
95
330
1F
100
AcDbEntity
  8
ASHADE
 62
     3
100
AcDbBlockReference
  2
AVE_RENDER
 10
0.0
 20
0.0
 30
0.0
1001
AVE_RENDER
1002
{
1070
     0
1000
Full Opt
1070
     0
1070
     1
1070
     1
1070
     1
1070
     0
1070
     0
1070
     0
1070
     1
1070
     1
1040
0.0001
1040
0.0001
1002
}
  0
INSERT
  5
96
330
1F
100
AcDbEntity
  8
ASHADE
 62
     4
100
AcDbBlockReference
  2
AVE_RENDER
 10
0.0
 20
0.0
 30
0.0
1001
AVE_RENDER
1002
{
1070
     0
1000
Quick Opt
1070
     0
1070
     1
1070
     1
1070
     1
1070
     0
1070
     0
1070
     1
1002
}
  0
INSERT
  5
97
330
1F
100
AcDbEntity
  8
ASHADE
 62
     5
100
AcDbBlockReference
  2
AVE_RENDER
 10
0.0
 20
0.0
 30
0.0
1001
AVE_RENDER
1002
{
1070
     1
1000
Scanl Opt
1070
     2
1070
     0
1070
     2
1040
2.0
1040
4.0
1070
     0
1070
     1
1070
     0
1040
0.03
1002
}
  0
INSERT
  5
98
330
1F
100
AcDbEntity
  8
ASHADE
 62
     6
100
AcDbBlockReference
  2
AVE_RENDER
 10
0.0
 20
0.0
 30
0.0
1001
AVE_RENDER
1002
{
1070
     2
1000
Raytr Opt
1070
     2
1070
     0
1070
     2
1040
2.0
1040
4.0
1070
     0
1070
     1
1070
     1
1040
0.03
1070
     3
1040
0.03
1002
}
  0
INSERT
  5
99
330
1F
100
AcDbEntity
  8
ASHADE
 62
     7
100
AcDbBlockReference
  2
AVE_RENDER
 10
0.0
 20
0.0
 30
0.0
1001
AVE_RENDER
1002
{
1070
     0
1000
RFile Opt
1070
     1
1070
   640
1070
   480
1070
 10000
1070
     1
1070
     8
1070
     8
1070
     0
1070
     0
1070
     0
1070
     0
1070
     0
1070
     0
1070
     0
1002
}
  0
INSERT
  5
9A
330
1F
100
AcDbEntity
  8
ASHADE
 62
     8
100
AcDbBlockReference
  2
AVE_RENDER
 10
0.0
 20
0.0
 30
0.0
1001
AVE_RENDER
1002
{
1070
     0
1000
Fog Opt
1070
     0
1070
     0
1040
0.0
1040
1.0
1040
0.0
1040
1.0
1010
0.5
1020
0.5
1030
0.5
1002
}
  0
INSERT
  5
9B
330
1F
100
AcDbEntity
  8
ASHADE
 62
     9
100
AcDbBlockReference
  2
AVE_RENDER
 10
0.0
 20
0.0
 30
0.0
1001
AVE_RENDER
1002
{
1070
     0
1000
BG Opt
1070
     0
1070
     1
1010
0.0
1020
0.0
1030
0.0
1010
1.0
1020
0.0
1030
0.0
1010
0.0
1020
1.0
1030
0.0
1010
0.0
1020
0.0
1030
1.0
1040
0.5
1040
0.33
1040
0.0
1000

1070
     1
1000

1070
     1
1070
     1
1040
1.0
1040
1.0
1040
0.0
1040
0.0
1070
     0
1002
}
  0
INSERT
  5
A2
330
1F
100
AcDbEntity
  8
ASHADE
 62
     1
100
AcDbBlockReference
  2
AVE_GLOBAL
 10
0.0
 20
0.0
 30
0.0
1001
AVE_MATERIAL
1002
{
1000
*GLOBAL*
1000
2
1000
Global finish.
1002
{
1002
}
1002
{
1070
    63
1002
{
1002
{
1010
-1.0
1020
-1.0
1030
-1.0
1002
}
1040
0.1000000014901161
1000

1040
0.0
1002
{
1002
}
1040
0.0
1002
{
1002
}
1040
0.0
1002
}
1002
{
1002
{
1010
-1.0
1020
-1.0
1030
-1.0
1002
}
1040
0.6999999880790711
1000

1040
0.0
1002
{
1002
}
1040
0.0
1002
{
1002
}
1040
0.0
1002
}
1002
{
1002
{
1010
-1.0
1020
-1.0
1030
-1.0
1002
}
1040
0.2000000029802322
1000

1040
0.0
1002
{
1002
}
1040
0.0
1002
{
1002
}
1040
0.0
1002
}
1002
{
1070
     0
1002
{
1070
     1
1002
{
1040
1.0
1040
1.0
1000

1040
0.0
1002
{
1002
}
1040
0.0
1002
{
1002
}
1040
0.0
1002
}
1002
}
1040
1.0
1040
0.0
1040
0.0
1002
}
1002
{
1040
1.0
1040
1.0
1000

1040
0.0
1002
{
1002
}
1040
0.0
1002
{
1002
}
1040
0.0
1002
}
1002
{
1040
0.5
1040
1.0
1000

1040
0.0
1002
{
1002
}
1040
0.0
1002
{
1002
}
1040
0.0
1002
}
1002
{
1070
     0
1040
0.0
1002
{
1002
}
1040
1.0
1002
{
1002
}
1040
0.0
1002
}
1002
{
1040
0.0
1002
{
1002
{
1010
0.0
1020
0.0
1030
0.0
1002
}
1040
1.0
1000

1040
0.0
1002
{
1002
}
1040
0.0
1002
{
1002
}
1040
0.0
1002
}
1002
}
1002
{
1002
{
1070
     1
1002
{
1040
0.0
1040
1.0
1000

1040
0.0
1002
{
1002
}
1040
0.0
1002
{
1002
}
1040
0.0
1002
}
1002
}
1040
0.0
1002
{
1002
}
1010
1.0
1020
0.0
1030
0.0
1010
0.0
1020
1.0
1030
0.0
1010
0.0
1020
0.0
1030
1.0
1070
     0
1002
}
1002
{
1002
{
1040
1.0
1040
1.0
1002
{
1070
     1
1002
{
1040
1.0
1040
1.0
1000

1040
0.0
1002
{
1002
}
1040
0.0
1002
{
1002
}
1040
0.0
1002
}
1002
}
1002
}
1070
     0
1040
0.0
1002
{
1002
}
1002
}
1002
{
1002
}
1002
}
1002
{
1071
        3
1070
     3
1070
     0
1002
{
1070
     2
1070
     0
1070
     0
1040
0.0
1002
}
1070
     0
1070
     2
1002
{
1002
}
1002
}
1002
{
1040
8030.0
1040
190.3000030517578
1040
0.3050000071525574
1040
228.0
1040
545.0
1040
14.0
1040
17.39999961853027
1040
0.4560000002384186
1002
}
1002
}
  0
POLYLINE
  5
FC
102
{ACAD_REACTORS
330
39F
330
39E
102
}
330
1F
100
AcDbEntity
  8
Si40 Alu matt
 62
   254
420
 13618386
100
AcDbPolyFaceMesh
 66
     1
 10
0.0
 20
0.0
 30
0.0
 70
    64
 71
   124
 72
    76
  0
VERTEX
  5
FD
330
FC
100
AcDbEntity
  8
Si40 Alu matt
 62
   254
420
 13618386
100
AcDbVertex
100
AcDbPolyFaceMeshVertex
 10
30.00004005432129
 20
118.5519790649414
 30
2166.5
 70
   192
  0
VERTEX
  5
FE
330
FC
100
AcDbEntity
  8
Si40 Alu matt
 62
   254
420
 13618386
100
AcDbVertex
100
AcDbPolyFaceMeshVertex
 10
30.00004005432129
 20
118.5519790649414
 30
2161.5
 70
   192
  0
VERTEX
  5
FF
330
FC
100
AcDbEntity
  8
Si40 Alu matt
 62
   254
420
 13618386
100
AcDbVertex
100
AcDbPolyFaceMeshVertex
 10
-29.99995994567871
 20
118.5519943237304
 30
2161.5
 70
   192
  0
VERTEX
  5
100
330
FC
100
AcDbEntity
  8
Si40 Alu matt
 62
   254
420
 13618386
100
AcDbVertex
100
AcDbPolyFaceMeshVertex
 10
-29.99995994567871
 20
118.5519943237304
 30
2166.5
 70
   192
  0
VERTEX
  5
101
330
FC
100
AcDbEntity
  8
Si40 Alu matt
 62
   254
420
 13618386
100
AcDbVertex
100
AcDbPolyFaceMeshVertex
 10
30.00041389465332
 20
1265.552001953125
 30
2161.5
 70
   192
  0
VERTEX
  5
102
330
FC
100
AcDbEntity
  8
Si40 Alu matt
 62
   254
420
 13618386
100
AcDbVertex
100
AcDbPolyFaceMeshVertex
 10
30.00004005432129
 20
118.5519790649414
 30
2161.5
 70
   192
  0
VERTEX
  5
103
330
FC
100
AcDbEntity
  8
Si40 Alu matt
 62
   254
420
 13618386
100
AcDbVertex
100
AcDbPolyFaceMeshVertex
 10
30.00004005432129
 20
118.5519790649414
 30
2166.5
 70
   192
  0
VERTEX
  5
104
330
FC
100
AcDbEntity
  8
Si40 Alu matt
 62
   254
420
 13618386
100
AcDbVertex
100
AcDbPolyFaceMeshVertex
 10
30.00041389465332
 20
1265.552001953125
 30
2166.5
 70
   192
  0
VERTEX
  5
105
330
FC
100
AcDbEntity
  8
Si40 Alu matt
 62
   254
420
 13618386
100
AcDbVertex
100
AcDbPolyFaceMeshVertex
 10
22.68544006347656
 20
-19.25001525878906
 30
2200.0
 70
   192
  0
VERTEX
  5
106
330
FC
100
AcDbEntity
  8
Si40 Alu matt
 62
   254
420
 13618386
100
AcDbVertex
100
AcDbPolyFaceMeshVertex
 10
32.39999771118164
 20
-19.25001907348633
 30
2200.0
 70
   192
  0
VERTEX
  5
107
330
FC
100
AcDbEntity
  8
Si40 Alu matt
 62
   254
420
 13618386
100
AcDbVertex
100
AcDbPolyFaceMeshVertex
 10
-32.40000534057617
 20
-19.25
 30
2161.5
 70
   192
  0
VERTEX
  5
108
330
FC
100
AcDbEntity
  8
Si40 Alu matt
 62
   254
420
 13618386
100
AcDbVertex
100
AcDbPolyFaceMeshVertex
 10
-32.40000534057617
 20
-19.24999809265137
 30
2200.0
 70
   192
  0
VERTEX
  5
109
330
FC
100
AcDbEntity
  8
Si40 Alu matt
 62
   254
420
 13618386
100
AcDbVertex
100
AcDbPolyFaceMeshVertex
 10
32.39999771118164
 20
-19.25002098083496
 30
2161.5
 70
   192
  0
VERTEX
  5
10A
330
FC
100
AcDbEntity
  8
Si40 Alu matt
 62
   254
420
 13618386
100
AcDbVertex
100
AcDbPolyFaceMeshVertex
 10
-22.68545150756836
 20
-19.25000190734863
 30
2200.0
 70
   192
  0
VERTEX
  5
10B
330
FC
100
AcDbEntity
  8
Si40 Alu matt
 62
   254
420
 13618386
100
AcDbVertex
100
AcDbPolyFaceMeshVertex
 10
21.65956497192383
 20
-14.95001602172851
 30
2202.199951171875
 70
   192
  0
VERTEX
  5
10C
330
FC
100
AcDbEntity
  8
Si40 Alu matt
 62
   254
420
 13618386
100
AcDbVertex
100
AcDbPolyFaceMeshVertex
 10
22.68544006347656
 20
-19.25001525878906
 30
2200.0
 70
   192
  0
VERTEX
  5
10D
330
FC
100
AcDbEntity
  8
Si40 Alu matt
 62
   254
420
 13618386
100
AcDbVertex
100
AcDbPolyFaceMeshVertex
 10
-22.68545150756836
 20
-19.25000190734863
 30
2200.0
 70
   192
  0
VERTEX
  5
10E
330
FC
100
AcDbEntity
  8
Si40 Alu matt
 62
   254
420
 13618386
100
AcDbVertex
100
AcDbPolyFaceMeshVertex
 10
-21.65957260131836
 20
-14.95000267028808
 30
2202.199951171875
 70
   192
  0
VERTEX
  5
10F
330
FC
100
AcDbEntity
  8
Si40 Alu matt
 62
   254
420
 13618386
100
AcDbVertex
100
AcDbPolyFaceMeshVertex
 10
21.65956497192383
 20
-14.95001602172851
 30
2202.199951171875
 70
   192
  0
VERTEX
  5
110
330
FC
100
AcDbEntity
  8
Si40 Alu matt
 62
   254
420
 13618386
100
AcDbVertex
100
AcDbPolyFaceMeshVertex
 10
-21.65957260131836
 20
-14.95000267028808
 30
2202.199951171875
 70
   192
  0
VERTEX
  5
111
330
FC
100
AcDbEntity
  8
Si40 Alu matt
 62
   254
420
 13618386
100
AcDbVertex
100
AcDbPolyFaceMeshVertex
 10
-21.65957260131836
 20
-13.25000286102295
 30
2202.199951171875
 70
   192
  0
VERTEX
  5
112
330
FC
100
AcDbEntity
  8
Si40 Alu matt
 62
   254
420
 13618386
100
AcDbVertex
100
AcDbPolyFaceMeshVertex
 10
21.65956497192383
 20
-13.25001621246338
 30
2202.199951171875
 70
   192
  0
VERTEX
  5
113
330
FC
100
AcDbEntity
  8
Si40 Alu matt
 62
   254
420
 13618386
100
AcDbVertex
100
AcDbPolyFaceMeshVertex
 10
-21.65957260131836
 20
-13.25000286102295
 30
2202.199951171875
 70
   192
  0
VERTEX
  5
114
330
FC
100
AcDbEntity
  8
Si40 Alu matt
 62
   254
420
 13618386
100
AcDbVertex
100
AcDbPolyFaceMeshVertex
 10
-21.89272689819336
 20
-13.25000286102295
 30
2201.699951171875
 70
   192
  0
VERTEX
  5
115
330
FC
100
AcDbEntity
  8
Si40 Alu matt
 62
   254
420
 13618386
100
AcDbVertex
100
AcDbPolyFaceMeshVertex
 10
-21.10000419616699
 20
-13.25000286102295
 30
2195.0
 70
   192
  0
VERTEX
  5
116
330
FC
100
AcDbEntity
  8
Si40 Alu matt
 62
   254
420
 13618386
100
AcDbVertex
100
AcDbPolyFaceMeshVertex
 10
21.09999656677246
 20
-13.25001716613769
 30
2195.0
 70
   192
  0
VERTEX
  5
117
330
FC
100
AcDbEntity
  8
Si40 Alu matt
 62
   254
420
 13618386
100
AcDbVertex
100
AcDbPolyFaceMeshVertex
 10
-21.10000419616699
 20
-13.25000286102295
 30
2200.0
 70
   192
  0
VERTEX
  5
118
330
FC
100
AcDbEntity
  8
Si40 Alu matt
 62
   254
420
 13618386
100
AcDbVertex
100
AcDbPolyFaceMeshVertex
 10
21.09999656677246
 20
-13.25001621246338
 30
2200.0
 70
   192
  0
VERTEX
  5
119
330
FC
100
AcDbEntity
  8
Si40 Alu matt
 62
   254
420
 13618386
100
AcDbVertex
100
AcDbPolyFaceMeshVertex
 10
21.89271926879883
 20
-13.25001716613769
 30
2201.699951171875
 70
   192
  0
VERTEX
  5
11A
330
FC
100
AcDbEntity
  8
Si40 Alu matt
 62
   254
420
 13618386
100
AcDbVertex
100
AcDbPolyFaceMeshVertex
 10
21.65956497192383
 20
-13.25001621246338
 30
2202.199951171875
 70
   192
  0
VERTEX
  5
11B
330
FC
100
AcDbEntity
  8
Si40 Alu matt
 62
   254
420
 13618386
100
AcDbVertex
100
AcDbPolyFaceMeshVertex
 10
22.68544006347656
 20
-19.25001525878906
 30
2200.0
 70
   192
  0
VERTEX
  5
11C
330
FC
100
AcDbEntity
  8
Si40 Alu matt
 62
   254
420
 13618386
100
AcDbVertex
100
AcDbPolyFaceMeshVertex
 10
32.39999771118164
 20
-19.25001907348633
 30
2200.0
 70
   192
  0
VERTEX
  5
11D
330
FC
100
AcDbEntity
  8
Si40 Alu matt
 62
   254
420
 13618386
100
AcDbVertex
100
AcDbPolyFaceMeshVertex
 10
32.40042495727539
 20
1296.60205078125
 30
2200.0
 70
   192
  0
VERTEX
  5
11E
330
FC
100
AcDbEntity
  8
Si40 Alu matt
 62
   254
420
 13618386
100
AcDbVertex
100
AcDbPolyFaceMeshVertex
 10
22.68586921691895
 20
1296.60205078125
 30
2200.0
 70
   192
  0
VERTEX
  5
11F
330
FC
100
AcDbEntity
  8
Si40 Alu matt
 62
   254
420
 13618386
100
AcDbVertex
100
AcDbPolyFaceMeshVertex
 10
32.39999771118164
 20
-19.25001907348633
 30
2200.0
 70
   192
  0
VERTEX
  5
120
330
FC
100
AcDbEntity
  8
Si40 Alu matt
 62
   254
420
 13618386
100
AcDbVertex
100
AcDbPolyFaceMeshVertex
 10
32.39999771118164
 20
-19.25002098083496
 30
2161.5
 70
   192
  0
VERTEX
  5
121
330
FC
100
AcDbEntity
  8
Si40 Alu matt
 62
   254
420
 13618386
100
AcDbVertex
100
AcDbPolyFaceMeshVertex
 10
32.40042495727539
 20
1296.60205078125
 30
2161.5
 70
   192
  0
VERTEX
  5
122
330
FC
100
AcDbEntity
  8
Si40 Alu matt
 62
   254
420
 13618386
100
AcDbVertex
100
AcDbPolyFaceMeshVertex
 10
32.40042495727539
 20
1296.60205078125
 30
2200.0
 70
   192
  0
VERTEX
  5
123
330
FC
100
AcDbEntity
  8
Si40 Alu matt
 62
   254
420
 13618386
100
AcDbVertex
100
AcDbPolyFaceMeshVertex
 10
30.00041389465332
 20
1265.552001953125
 30
2166.5
 70
   192
  0
VERTEX
  5
124
330
FC
100
AcDbEntity
  8
Si40 Alu matt
 62
   254
420
 13618386
100
AcDbVertex
100
AcDbPolyFaceMeshVertex
 10
30.00004005432129
 20
118.5519790649414
 30
2166.5
 70
   192
  0
VERTEX
  5
125
330
FC
100
AcDbEntity
  8
Si40 Alu matt
 62
   254
420
 13618386
100
AcDbVertex
100
AcDbPolyFaceMeshVertex
 10
-29.99995994567871
 20
118.5519943237304
 30
2166.5
 70
   192
  0
VERTEX
  5
126
330
FC
100
AcDbEntity
  8
Si40 Alu matt
 62
   254
420
 13618386
100
AcDbVertex
100
AcDbPolyFaceMeshVertex
 10
-29.99958610534668
 20
1265.552001953125
 30
2166.5
 70
   192
  0
VERTEX
  5
127
330
FC
100
AcDbEntity
  8
Si40 Alu matt
 62
   254
420
 13618386
100
AcDbVertex
100
AcDbPolyFaceMeshVertex
 10
-29.99958610534668
 20
1265.552001953125
 30
2166.5
 70
   192
  0
VERTEX
  5
128
330
FC
100
AcDbEntity
  8
Si40 Alu matt
 62
   254
420
 13618386
100
AcDbVertex
100
AcDbPolyFaceMeshVertex
 10
-29.99995994567871
 20
118.5519943237304
 30
2166.5
 70
   192
  0
VERTEX
  5
129
330
FC
100
AcDbEntity
  8
Si40 Alu matt
 62
   254
420
 13618386
100
AcDbVertex
100
AcDbPolyFaceMeshVertex
 10
-29.99995994567871
 20
118.5519943237304
 30
2161.5
 70
   192
  0
VERTEX
  5
12A
330
FC
100
AcDbEntity
  8
Si40 Alu matt
 62
   254
420
 13618386
100
AcDbVertex
100
AcDbPolyFaceMeshVertex
 10
-29.99958610534668
 20
1265.552001953125
 30
2161.5
 70
   192
  0
VERTEX
  5
12B
330
FC
100
AcDbEntity
  8
Si40 Alu matt
 62
   254
420
 13618386
100
AcDbVertex
100
AcDbPolyFaceMeshVertex
 10
-29.99995994567871
 20
118.5519943237304
 30
2161.5
 70
   192
  0
VERTEX
  5
12C
330
FC
100
AcDbEntity
  8
Si40 Alu matt
 62
   254
420
 13618386
100
AcDbVertex
100
AcDbPolyFaceMeshVertex
 10
-32.40000534057617
 20
-19.25
 30
2161.5
 70
   192
  0
VERTEX
  5
12D
330
FC
100
AcDbEntity
  8
Si40 Alu matt
 62
   254
420
 13618386
100
AcDbVertex
100
AcDbPolyFaceMeshVertex
 10
-29.99958610534668
 20
1265.552001953125
 30
2161.5
 70
   192
  0
VERTEX
  5
12E
330
FC
100
AcDbEntity
  8
Si40 Alu matt
 62
   254
420
 13618386
100
AcDbVertex
100
AcDbPolyFaceMeshVertex
 10
-32.39957809448242
 20
1296.60205078125
 30
2161.5
 70
   192
  0
VERTEX
  5
12F
330
FC
100
AcDbEntity
  8
Si40 Alu matt
 62
   254
420
 13618386
100
AcDbVertex
100
AcDbPolyFaceMeshVertex
 10
30.00041389465332
 20
1265.552001953125
 30
2161.5
 70
   192
  0
VERTEX
  5
130
330
FC
100
AcDbEntity
  8
Si40 Alu matt
 62
   254
420
 13618386
100
AcDbVertex
100
AcDbPolyFaceMeshVertex
 10
32.40042495727539
 20
1296.60205078125
 30
2161.5
 70
   192
  0
VERTEX
  5
131
330
FC
100
AcDbEntity
  8
Si40 Alu matt
 62
   254
420
 13618386
100
AcDbVertex
100
AcDbPolyFaceMeshVertex
 10
30.00004005432129
 20
118.5519790649414
 30
2161.5
 70
   192
  0
VERTEX
  5
132
330
FC
100
AcDbEntity
  8
Si40 Alu matt
 62
   254
420
 13618386
100
AcDbVertex
100
AcDbPolyFaceMeshVertex
 10
32.39999771118164
 20
-19.25002098083496
 30
2161.5
 70
   192
  0
VERTEX
  5
133
330
FC
100
AcDbEntity
  8
Si40 Alu matt
 62
   254
420
 13618386
100
AcDbVertex
100
AcDbPolyFaceMeshVertex
 10
-32.40000534057617
 20
-19.25
 30
2161.5
 70
   192
  0
VERTEX
  5
134
330
FC
100
AcDbEntity
  8
Si40 Alu matt
 62
   254
420
 13618386
100
AcDbVertex
100
AcDbPolyFaceMeshVertex
 10
-32.40000534057617
 20
-19.24999809265137
 30
2200.0
 70
   192
  0
VERTEX
  5
135
330
FC
100
AcDbEntity
  8
Si40 Alu matt
 62
   254
420
 13618386
100
AcDbVertex
100
AcDbPolyFaceMeshVertex
 10
-32.39957809448242
 20
1296.60205078125
 30
2200.0
 70
   192
  0
VERTEX
  5
136
330
FC
100
AcDbEntity
  8
Si40 Alu matt
 62
   254
420
 13618386
100
AcDbVertex
100
AcDbPolyFaceMeshVertex
 10
-32.39957809448242
 20
1296.60205078125
 30
2161.5
 70
   192
  0
VERTEX
  5
137
330
FC
100
AcDbEntity
  8
Si40 Alu matt
 62
   254
420
 13618386
100
AcDbVertex
100
AcDbPolyFaceMeshVertex
 10
-21.89230155944824
 20
1290.60205078125
 30
2201.699951171875
 70
   192
  0
VERTEX
  5
138
330
FC
100
AcDbEntity
  8
Si40 Alu matt
 62
   254
420
 13618386
100
AcDbVertex
100
AcDbPolyFaceMeshVertex
 10
-21.89272689819336
 20
-13.25000286102295
 30
2201.699951171875
 70
   192
  0
VERTEX
  5
139
330
FC
100
AcDbEntity
  8
Si40 Alu matt
 62
   254
420
 13618386
100
AcDbVertex
100
AcDbPolyFaceMeshVertex
 10
-21.10000419616699
 20
-13.25000286102295
 30
2200.0
 70
   192
  0
VERTEX
  5
13A
330
FC
100
AcDbEntity
  8
Si40 Alu matt
 62
   254
420
 13618386
100
AcDbVertex
100
AcDbPolyFaceMeshVertex
 10
-21.09957885742188
 20
1290.60205078125
 30
2200.0
 70
   192
  0
VERTEX
  5
13B
330
FC
100
AcDbEntity
  8
Si40 Alu matt
 62
   254
420
 13618386
100
AcDbVertex
100
AcDbPolyFaceMeshVertex
 10
-21.10000419616699
 20
-13.25000286102295
 30
2200.0
 70
   192
  0
VERTEX
  5
13C
330
FC
100
AcDbEntity
  8
Si40 Alu matt
 62
   254
420
 13618386
100
AcDbVertex
100
AcDbPolyFaceMeshVertex
 10
-21.10000419616699
 20
-13.25000286102295
 30
2195.0
 70
   192
  0
VERTEX
  5
13D
330
FC
100
AcDbEntity
  8
Si40 Alu matt
 62
   254
420
 13618386
100
AcDbVertex
100
AcDbPolyFaceMeshVertex
 10
-21.09957885742188
 20
1290.60205078125
 30
2195.0
 70
   192
  0
VERTEX
  5
13E
330
FC
100
AcDbEntity
  8
Si40 Alu matt
 62
   254
420
 13618386
100
AcDbVertex
100
AcDbPolyFaceMeshVertex
 10
-21.09957885742188
 20
1290.60205078125
 30
2200.0
 70
   192
  0
VERTEX
  5
13F
330
FC
100
AcDbEntity
  8
Si40 Alu matt
 62
   254
420
 13618386
100
AcDbVertex
100
AcDbPolyFaceMeshVertex
 10
-21.10000419616699
 20
-13.25000286102295
 30
2195.0
 70
   192
  0
VERTEX
  5
140
330
FC
100
AcDbEntity
  8
Si40 Alu matt
 62
   254
420
 13618386
100
AcDbVertex
100
AcDbPolyFaceMeshVertex
 10
21.09999656677246
 20
-13.25001716613769
 30
2195.0
 70
   192
  0
VERTEX
  5
141
330
FC
100
AcDbEntity
  8
Si40 Alu matt
 62
   254
420
 13618386
100
AcDbVertex
100
AcDbPolyFaceMeshVertex
 10
21.10042190551758
 20
1290.60205078125
 30
2195.0
 70
   192
  0
VERTEX
  5
142
330
FC
100
AcDbEntity
  8
Si40 Alu matt
 62
   254
420
 13618386
100
AcDbVertex
100
AcDbPolyFaceMeshVertex
 10
-21.09957885742188
 20
1290.60205078125
 30
2195.0
 70
   192
  0
VERTEX
  5
143
330
FC
100
AcDbEntity
  8
Si40 Alu matt
 62
   254
420
 13618386
100
AcDbVertex
100
AcDbPolyFaceMeshVertex
 10
21.09999656677246
 20
-13.25001716613769
 30
2195.0
 70
   192
  0
VERTEX
  5
144
330
FC
100
AcDbEntity
  8
Si40 Alu matt
 62
   254
420
 13618386
100
AcDbVertex
100
AcDbPolyFaceMeshVertex
 10
21.09999656677246
 20
-13.25001621246338
 30
2200.0
 70
   192
  0
VERTEX
  5
145
330
FC
100
AcDbEntity
  8
Si40 Alu matt
 62
   254
420
 13618386
100
AcDbVertex
100
AcDbPolyFaceMeshVertex
 10
21.10042190551758
 20
1290.60205078125
 30
2200.0
 70
   192
  0
VERTEX
  5
146
330
FC
100
AcDbEntity
  8
Si40 Alu matt
 62
   254
420
 13618386
100
AcDbVertex
100
AcDbPolyFaceMeshVertex
 10
21.10042190551758
 20
1290.60205078125
 30
2195.0
 70
   192
  0
VERTEX
  5
147
330
FC
100
AcDbEntity
  8
Si40 Alu matt
 62
   254
420
 13618386
100
AcDbVertex
100
AcDbPolyFaceMeshVertex
 10
21.09999656677246
 20
-13.25001621246338
 30
2200.0
 70
   192
  0
VERTEX
  5
148
330
FC
100
AcDbEntity
  8
Si40 Alu matt
 62
   254
420
 13618386
100
AcDbVertex
100
AcDbPolyFaceMeshVertex
 10
21.89271926879883
 20
-13.25001716613769
 30
2201.699951171875
 70
   192
  0
VERTEX
  5
149
330
FC
100
AcDbEntity
  8
Si40 Alu matt
 62
   254
420
 13618386
100
AcDbVertex
100
AcDbPolyFaceMeshVertex
 10
21.89314460754395
 20
1290.60205078125
 30
2201.699951171875
 70
   192
  0
VERTEX
  5
14A
330
FC
100
AcDbEntity
  8
Si40 Alu matt
 62
   254
420
 13618386
100
AcDbVertex
100
AcDbPolyFaceMeshVertex
 10
21.10042190551758
 20
1290.60205078125
 30
2200.0
 70
   192
  0
VERTEX
  5
14B
330
FC
100
AcDbEntity
  8
Si40 Alu matt
 62
   254
420
 13618386
100
AcDbVertex
100
AcDbPolyFaceMeshVertex
 10
21.65956497192383
 20
-14.95001602172851
 30
2202.199951171875
 70
   192
  0
VERTEX
  5
14C
330
FC
100
AcDbEntity
  8
Si40 Alu matt
 62
   254
420
 13618386
100
AcDbVertex
100
AcDbPolyFaceMeshVertex
 10
21.89271926879883
 20
-13.25001716613769
 30
2201.699951171875
 70
   192
  0
VERTEX
  5
14D
330
FC
100
AcDbEntity
  8
Si40 Alu matt
 62
   254
420
 13618386
100
AcDbVertex
100
AcDbPolyFaceMeshVertex
 10
21.65956497192383
 20
-13.25001621246338
 30
2202.199951171875
 70
   192
  0
VERTEX
  5
14E
330
FC
100
AcDbEntity
  8
Si40 Alu matt
 62
   254
420
 13618386
100
AcDbVertex
100
AcDbPolyFaceMeshVertex
 10
21.65999031066895
 20
1292.302001953125
 30
2202.199951171875
 70
   192
  0
VERTEX
  5
14F
330
FC
100
AcDbEntity
  8
Si40 Alu matt
 62
   254
420
 13618386
100
AcDbVertex
100
AcDbPolyFaceMeshVertex
 10
21.65999031066895
 20
1290.60205078125
 30
2202.199951171875
 70
   192
  0
VERTEX
  5
150
330
FC
100
AcDbEntity
  8
Si40 Alu matt
 62
   254
420
 13618386
100
AcDbVertex
100
AcDbPolyFaceMeshVertex
 10
22.68586921691895
 20
1296.60205078125
 30
2200.0
 70
   192
  0
VERTEX
  5
151
330
FC
100
AcDbEntity
  8
Si40 Alu matt
 62
   254
420
 13618386
100
AcDbVertex
100
AcDbPolyFaceMeshVertex
 10
22.68544006347656
 20
-19.25001525878906
 30
2200.0
 70
   192
  0
VERTEX
  5
152
330
FC
100
AcDbEntity
  8
Si40 Alu matt
 62
   254
420
 13618386
100
AcDbVertex
100
AcDbPolyFaceMeshVertex
 10
21.89314460754395
 20
1290.60205078125
 30
2201.699951171875
 70
   192
  0
VERTEX
  5
153
330
FC
100
AcDbEntity
  8
Si40 Alu matt
 62
   254
420
 13618386
100
AcDbVertex
100
AcDbPolyFaceMeshVertex
 10
-29.99958610534668
 20
1265.552001953125
 30
2166.5
 70
   192
  0
VERTEX
  5
154
330
FC
100
AcDbEntity
  8
Si40 Alu matt
 62
   254
420
 13618386
100
AcDbVertex
100
AcDbPolyFaceMeshVertex
 10
-29.99958610534668
 20
1265.552001953125
 30
2161.5
 70
   192
  0
VERTEX
  5
155
330
FC
100
AcDbEntity
  8
Si40 Alu matt
 62
   254
420
 13618386
100
AcDbVertex
100
AcDbPolyFaceMeshVertex
 10
30.00041389465332
 20
1265.552001953125
 30
2161.5
 70
   192
  0
VERTEX
  5
156
330
FC
100
AcDbEntity
  8
Si40 Alu matt
 62
   254
420
 13618386
100
AcDbVertex
100
AcDbPolyFaceMeshVertex
 10
30.00041389465332
 20
1265.552001953125
 30
2166.5
 70
   192
  0
VERTEX
  5
157
330
FC
100
AcDbEntity
  8
Si40 Alu matt
 62
   254
420
 13618386
100
AcDbVertex
100
AcDbPolyFaceMeshVertex
 10
-32.40000534057617
 20
-19.24999809265137
 30
2200.0
 70
   192
  0
VERTEX
  5
158
330
FC
100
AcDbEntity
  8
Si40 Alu matt
 62
   254
420
 13618386
100
AcDbVertex
100
AcDbPolyFaceMeshVertex
 10
-22.68545150756836
 20
-19.25000190734863
 30
2200.0
 70
   192
  0
VERTEX
  5
159
330
FC
100
AcDbEntity
  8
Si40 Alu matt
 62
   254
420
 13618386
100
AcDbVertex
100
AcDbPolyFaceMeshVertex
 10
-22.68502235412598
 20
1296.60205078125
 30
2200.0
 70
   192
  0
VERTEX
  5
15A
330
FC
100
AcDbEntity
  8
Si40 Alu matt
 62
   254
420
 13618386
100
AcDbVertex
100
AcDbPolyFaceMeshVertex
 10
-32.39957809448242
 20
1296.60205078125
 30
2200.0
 70
   192
  0
VERTEX
  5
15B
330
FC
100
AcDbEntity
  8
Si40 Alu matt
 62
   254
420
 13618386
100
AcDbVertex
100
AcDbPolyFaceMeshVertex
 10
22.68586921691895
 20
1296.60205078125
 30
2200.0
 70
   192
  0
VERTEX
  5
15C
330
FC
100
AcDbEntity
  8
Si40 Alu matt
 62
   254
420
 13618386
100
AcDbVertex
100
AcDbPolyFaceMeshVertex
 10
32.40042495727539
 20
1296.60205078125
 30
2200.0
 70
   192
  0
VERTEX
  5
15D
330
FC
100
AcDbEntity
  8
Si40 Alu matt
 62
   254
420
 13618386
100
AcDbVertex
100
AcDbPolyFaceMeshVertex
 10
32.40042495727539
 20
1296.60205078125
 30
2161.5
 70
   192
  0
VERTEX
  5
15E
330
FC
100
AcDbEntity
  8
Si40 Alu matt
 62
   254
420
 13618386
100
AcDbVertex
100
AcDbPolyFaceMeshVertex
 10
-32.39957809448242
 20
1296.60205078125
 30
2161.5
 70
   192
  0
VERTEX
  5
15F
330
FC
100
AcDbEntity
  8
Si40 Alu matt
 62
   254
420
 13618386
100
AcDbVertex
100
AcDbPolyFaceMeshVertex
 10
-32.39957809448242
 20
1296.60205078125
 30
2200.0
 70
   192
  0
VERTEX
  5
160
330
FC
100
AcDbEntity
  8
Si40 Alu matt
 62
   254
420
 13618386
100
AcDbVertex
100
AcDbPolyFaceMeshVertex
 10
-22.68502235412598
 20
1296.60205078125
 30
2200.0
 70
   192
  0
VERTEX
  5
161
330
FC
100
AcDbEntity
  8
Si40 Alu matt
 62
   254
420
 13618386
100
AcDbVertex
100
AcDbPolyFaceMeshVertex
 10
21.65999031066895
 20
1292.302001953125
 30
2202.199951171875
 70
   192
  0
VERTEX
  5
162
330
FC
100
AcDbEntity
  8
Si40 Alu matt
 62
   254
420
 13618386
100
AcDbVertex
100
AcDbPolyFaceMeshVertex
 10
22.68586921691895
 20
1296.60205078125
 30
2200.0
 70
   192
  0
VERTEX
  5
163
330
FC
100
AcDbEntity
  8
Si40 Alu matt
 62
   254
420
 13618386
100
AcDbVertex
100
AcDbPolyFaceMeshVertex
 10
-22.68502235412598
 20
1296.60205078125
 30
2200.0
 70
   192
  0
VERTEX
  5
164
330
FC
100
AcDbEntity
  8
Si40 Alu matt
 62
   254
420
 13618386
100
AcDbVertex
100
AcDbPolyFaceMeshVertex
 10
-21.65914726257324
 20
1292.302001953125
 30
2202.199951171875
 70
   192
  0
VERTEX
  5
165
330
FC
100
AcDbEntity
  8
Si40 Alu matt
 62
   254
420
 13618386
100
AcDbVertex
100
AcDbPolyFaceMeshVertex
 10
21.65999031066895
 20
1292.302001953125
 30
2202.199951171875
 70
   192
  0
VERTEX
  5
166
330
FC
100
AcDbEntity
  8
Si40 Alu matt
 62
   254
420
 13618386
100
AcDbVertex
100
AcDbPolyFaceMeshVertex
 10
-21.65914726257324
 20
1292.302001953125
 30
2202.199951171875
 70
   192
  0
VERTEX
  5
167
330
FC
100
AcDbEntity
  8
Si40 Alu matt
 62
   254
420
 13618386
100
AcDbVertex
100
AcDbPolyFaceMeshVertex
 10
-21.65914726257324
 20
1290.60205078125
 30
2202.199951171875
 70
   192
  0
VERTEX
  5
168
330
FC
100
AcDbEntity
  8
Si40 Alu matt
 62
   254
420
 13618386
100
AcDbVertex
100
AcDbPolyFaceMeshVertex
 10
21.65999031066895
 20
1290.60205078125
 30
2202.199951171875
 70
   192
  0
VERTEX
  5
169
330
FC
100
AcDbEntity
  8
Si40 Alu matt
 62
   254
420
 13618386
100
AcDbVertex
100
AcDbPolyFaceMeshVertex
 10
-21.65914726257324
 20
1290.60205078125
 30
2202.199951171875
 70
   192
  0
VERTEX
  5
16A
330
FC
100
AcDbEntity
  8
Si40 Alu matt
 62
   254
420
 13618386
100
AcDbVertex
100
AcDbPolyFaceMeshVertex
 10
-21.89230155944824
 20
1290.60205078125
 30
2201.699951171875
 70
   192
  0
VERTEX
  5
16B
330
FC
100
AcDbEntity
  8
Si40 Alu matt
 62
   254
420
 13618386
100
AcDbVertex
100
AcDbPolyFaceMeshVertex
 10
-21.09957885742188
 20
1290.60205078125
 30
2195.0
 70
   192
  0
VERTEX
  5
16C
330
FC
100
AcDbEntity
  8
Si40 Alu matt
 62
   254
420
 13618386
100
AcDbVertex
100
AcDbPolyFaceMeshVertex
 10
21.10042190551758
 20
1290.60205078125
 30
2195.0
 70
   192
  0
VERTEX
  5
16D
330
FC
100
AcDbEntity
  8
Si40 Alu matt
 62
   254
420
 13618386
100
AcDbVertex
100
AcDbPolyFaceMeshVertex
 10
-21.09957885742188
 20
1290.60205078125
 30
2200.0
 70
   192
  0
VERTEX
  5
16E
330
FC
100
AcDbEntity
  8
Si40 Alu matt
 62
   254
420
 13618386
100
AcDbVertex
100
AcDbPolyFaceMeshVertex
 10
21.10042190551758
 20
1290.60205078125
 30
2200.0
 70
   192
  0
VERTEX
  5
16F
330
FC
100
AcDbEntity
  8
Si40 Alu matt
 62
   254
420
 13618386
100
AcDbVertex
100
AcDbPolyFaceMeshVertex
 10
21.89314460754395
 20
1290.60205078125
 30
2201.699951171875
 70
   192
  0
VERTEX
  5
170
330
FC
100
AcDbEntity
  8
Si40 Alu matt
 62
   254
420
 13618386
100
AcDbVertex
100
AcDbPolyFaceMeshVertex
 10
21.65999031066895
 20
1290.60205078125
 30
2202.199951171875
 70
   192
  0
VERTEX
  5
171
330
FC
100
AcDbEntity
  8
Si40 Alu matt
 62
   254
420
 13618386
100
AcDbVertex
100
AcDbPolyFaceMeshVertex
 10
-22.68545150756836
 20
-19.25000190734863
 30
2200.0
 70
   192
  0
VERTEX
  5
172
330
FC
100
AcDbEntity
  8
Si40 Alu matt
 62
   254
420
 13618386
100
AcDbVertex
100
AcDbPolyFaceMeshVertex
 10
-21.65957260131836
 20
-14.95000267028808
 30
2202.199951171875
 70
   192
  0
VERTEX
  5
173
330
FC
100
AcDbEntity
  8
Si40 Alu matt
 62
   254
420
 13618386
100
AcDbVertex
100
AcDbPolyFaceMeshVertex
 10
-21.65957260131836
 20
-13.25000286102295
 30
2202.199951171875
 70
   192
  0
VERTEX
  5
174
330
FC
100
AcDbEntity
  8
Si40 Alu matt
 62
   254
420
 13618386
100
AcDbVertex
100
AcDbPolyFaceMeshVertex
 10
-21.89230155944824
 20
1290.60205078125
 30
2201.699951171875
 70
   192
  0
VERTEX
  5
175
330
FC
100
AcDbEntity
  8
Si40 Alu matt
 62
   254
420
 13618386
100
AcDbVertex
100
AcDbPolyFaceMeshVertex
 10
-21.65914726257324
 20
1290.60205078125
 30
2202.199951171875
 70
   192
  0
VERTEX
  5
176
330
FC
100
AcDbEntity
  8
Si40 Alu matt
 62
   254
420
 13618386
100
AcDbVertex
100
AcDbPolyFaceMeshVertex
 10
-21.65914726257324
 20
1292.302001953125
 30
2202.199951171875
 70
   192
  0
VERTEX
  5
177
330
FC
100
AcDbEntity
  8
Si40 Alu matt
 62
   254
420
 13618386
100
AcDbVertex
100
AcDbPolyFaceMeshVertex
 10
-22.68502235412598
 20
1296.60205078125
 30
2200.0
 70
   192
  0
VERTEX
  5
178
330
FC
100
AcDbEntity
  8
Si40 Alu matt
 62
   254
420
 13618386
100
AcDbVertex
100
AcDbPolyFaceMeshVertex
 10
-21.89272689819336
 20
-13.25000286102295
 30
2201.699951171875
 70
   192
  0
VERTEX
  5
179
330
FC
100
AcDbEntity
  8
Si40 Alu matt
 62
   254
420
 13618386
100
AcDbFaceRecord
 10
0.0
 20
0.0
 30
0.0
 70
   128
 71
     3
 72
     1
 73
     2
  0
VERTEX
  5
17A
330
FC
100
AcDbEntity
  8
Si40 Alu matt
 62
   254
420
 13618386
100
AcDbFaceRecord
 10
0.0
 20
0.0
 30
0.0
 70
   128
 71
     1
 72
     3
 73
     4
  0
VERTEX
  5
17B
330
FC
100
AcDbEntity
  8
Si40 Alu matt
 62
   254
420
 13618386
100
AcDbFaceRecord
 10
0.0
 20
0.0
 30
0.0
 70
   128
 71
     7
 72
     5
 73
     6
  0
VERTEX
  5
17C
330
FC
100
AcDbEntity
  8
Si40 Alu matt
 62
   254
420
 13618386
100
AcDbFaceRecord
 10
0.0
 20
0.0
 30
0.0
 70
   128
 71
     5
 72
     7
 73
     8
  0
VERTEX
  5
17D
330
FC
100
AcDbEntity
  8
Si40 Alu matt
 62
   254
420
 13618386
100
AcDbFaceRecord
 10
0.0
 20
0.0
 30
0.0
 70
   128
 71
    10
 72
     9
 73
    13
  0
VERTEX
  5
17E
330
FC
100
AcDbEntity
  8
Si40 Alu matt
 62
   254
420
 13618386
100
AcDbFaceRecord
 10
0.0
 20
0.0
 30
0.0
 70
   128
 71
    12
 72
    11
 73
    14
  0
VERTEX
  5
17F
330
FC
100
AcDbEntity
  8
Si40 Alu matt
 62
   254
420
 13618386
100
AcDbFaceRecord
 10
0.0
 20
0.0
 30
0.0
 70
   128
 71
    11
 72
    13
 73
    14
  0
VERTEX
  5
180
330
FC
100
AcDbEntity
  8
Si40 Alu matt
 62
   254
420
 13618386
100
AcDbFaceRecord
 10
0.0
 20
0.0
 30
0.0
 70
   128
 71
    14
 72
    13
 73
     9
  0
VERTEX
  5
181
330
FC
100
AcDbEntity
  8
Si40 Alu matt
 62
   254
420
 13618386
100
AcDbFaceRecord
 10
0.0
 20
0.0
 30
0.0
 70
   128
 71
    16
 72
    15
 73
    17
  0
VERTEX
  5
182
330
FC
100
AcDbEntity
  8
Si40 Alu matt
 62
   254
420
 13618386
100
AcDbFaceRecord
 10
0.0
 20
0.0
 30
0.0
 70
   128
 71
    18
 72
    17
 73
    15
  0
VERTEX
  5
183
330
FC
100
AcDbEntity
  8
Si40 Alu matt
 62
   254
420
 13618386
100
AcDbFaceRecord
 10
0.0
 20
0.0
 30
0.0
 70
   128
 71
    20
 72
    19
 73
    21
  0
VERTEX
  5
184
330
FC
100
AcDbEntity
  8
Si40 Alu matt
 62
   254
420
 13618386
100
AcDbFaceRecord
 10
0.0
 20
0.0
 30
0.0
 70
   128
 71
    22
 72
    21
 73
    19
  0
VERTEX
  5
185
330
FC
100
AcDbEntity
  8
Si40 Alu matt
 62
   254
420
 13618386
100
AcDbFaceRecord
 10
0.0
 20
0.0
 30
0.0
 70
   128
 71
    24
 72
    23
 73
    27
  0
VERTEX
  5
186
330
FC
100
AcDbEntity
  8
Si40 Alu matt
 62
   254
420
 13618386
100
AcDbFaceRecord
 10
0.0
 20
0.0
 30
0.0
 70
   128
 71
    26
 72
    25
 73
    28
  0
VERTEX
  5
187
330
FC
100
AcDbEntity
  8
Si40 Alu matt
 62
   254
420
 13618386
100
AcDbFaceRecord
 10
0.0
 20
0.0
 30
0.0
 70
   128
 71
    25
 72
    27
 73
    28
  0
VERTEX
  5
188
330
FC
100
AcDbEntity
  8
Si40 Alu matt
 62
   254
420
 13618386
100
AcDbFaceRecord
 10
0.0
 20
0.0
 30
0.0
 70
   128
 71
    28
 72
    27
 73
    29
  0
VERTEX
  5
189
330
FC
100
AcDbEntity
  8
Si40 Alu matt
 62
   254
420
 13618386
100
AcDbFaceRecord
 10
0.0
 20
0.0
 30
0.0
 70
   128
 71
    29
 72
    27
 73
    30
  0
VERTEX
  5
18A
330
FC
100
AcDbEntity
  8
Si40 Alu matt
 62
   254
420
 13618386
100
AcDbFaceRecord
 10
0.0
 20
0.0
 30
0.0
 70
   128
 71
    30
 72
    27
 73
    23
  0
VERTEX
  5
18B
330
FC
100
AcDbEntity
  8
Si40 Alu matt
 62
   254
420
 13618386
100
AcDbFaceRecord
 10
0.0
 20
0.0
 30
0.0
 70
   128
 71
    33
 72
    31
 73
    32
  0
VERTEX
  5
18C
330
FC
100
AcDbEntity
  8
Si40 Alu matt
 62
   254
420
 13618386
100
AcDbFaceRecord
 10
0.0
 20
0.0
 30
0.0
 70
   128
 71
    31
 72
    33
 73
    34
  0
VERTEX
  5
18D
330
FC
100
AcDbEntity
  8
Si40 Alu matt
 62
   254
420
 13618386
100
AcDbFaceRecord
 10
0.0
 20
0.0
 30
0.0
 70
   128
 71
    37
 72
    35
 73
    36
  0
VERTEX
  5
18E
330
FC
100
AcDbEntity
  8
Si40 Alu matt
 62
   254
420
 13618386
100
AcDbFaceRecord
 10
0.0
 20
0.0
 30
0.0
 70
   128
 71
    35
 72
    37
 73
    38
  0
VERTEX
  5
18F
330
FC
100
AcDbEntity
  8
Si40 Alu matt
 62
   254
420
 13618386
100
AcDbFaceRecord
 10
0.0
 20
0.0
 30
0.0
 70
   128
 71
    41
 72
    39
 73
    40
  0
VERTEX
  5
190
330
FC
100
AcDbEntity
  8
Si40 Alu matt
 62
   254
420
 13618386
100
AcDbFaceRecord
 10
0.0
 20
0.0
 30
0.0
 70
   128
 71
    39
 72
    41
 73
    42
  0
VERTEX
  5
191
330
FC
100
AcDbEntity
  8
Si40 Alu matt
 62
   254
420
 13618386
100
AcDbFaceRecord
 10
0.0
 20
0.0
 30
0.0
 70
   128
 71
    45
 72
    43
 73
    44
  0
VERTEX
  5
192
330
FC
100
AcDbEntity
  8
Si40 Alu matt
 62
   254
420
 13618386
100
AcDbFaceRecord
 10
0.0
 20
0.0
 30
0.0
 70
   128
 71
    43
 72
    45
 73
    46
  0
VERTEX
  5
193
330
FC
100
AcDbEntity
  8
Si40 Alu matt
 62
   254
420
 13618386
100
AcDbFaceRecord
 10
0.0
 20
0.0
 30
0.0
 70
   128
 71
    53
 72
    48
 73
    47
  0
VERTEX
  5
194
330
FC
100
AcDbEntity
  8
Si40 Alu matt
 62
   254
420
 13618386
100
AcDbFaceRecord
 10
0.0
 20
0.0
 30
0.0
 70
   128
 71
    49
 72
    48
 73
    50
  0
VERTEX
  5
195
330
FC
100
AcDbEntity
  8
Si40 Alu matt
 62
   254
420
 13618386
100
AcDbFaceRecord
 10
0.0
 20
0.0
 30
0.0
 70
   128
 71
    47
 72
    48
 73
    49
  0
VERTEX
  5
196
330
FC
100
AcDbEntity
  8
Si40 Alu matt
 62
   254
420
 13618386
100
AcDbFaceRecord
 10
0.0
 20
0.0
 30
0.0
 70
   128
 71
    52
 72
    49
 73
    50
  0
VERTEX
  5
197
330
FC
100
AcDbEntity
  8
Si40 Alu matt
 62
   254
420
 13618386
100
AcDbFaceRecord
 10
0.0
 20
0.0
 30
0.0
 70
   128
 71
    52
 72
    51
 73
    49
  0
VERTEX
  5
198
330
FC
100
AcDbEntity
  8
Si40 Alu matt
 62
   254
420
 13618386
100
AcDbFaceRecord
 10
0.0
 20
0.0
 30
0.0
 70
   128
 71
    54
 72
    51
 73
    52
  0
VERTEX
  5
199
330
FC
100
AcDbEntity
  8
Si40 Alu matt
 62
   254
420
 13618386
100
AcDbFaceRecord
 10
0.0
 20
0.0
 30
0.0
 70
   128
 71
    54
 72
    53
 73
    51
  0
VERTEX
  5
19A
330
FC
100
AcDbEntity
  8
Si40 Alu matt
 62
   254
420
 13618386
100
AcDbFaceRecord
 10
0.0
 20
0.0
 30
0.0
 70
   128
 71
    48
 72
    53
 73
    54
  0
VERTEX
  5
19B
330
FC
100
AcDbEntity
  8
Si40 Alu matt
 62
   254
420
 13618386
100
AcDbFaceRecord
 10
0.0
 20
0.0
 30
0.0
 70
   128
 71
    57
 72
    55
 73
    56
  0
VERTEX
  5
19C
330
FC
100
AcDbEntity
  8
Si40 Alu matt
 62
   254
420
 13618386
100
AcDbFaceRecord
 10
0.0
 20
0.0
 30
0.0
 70
   128
 71
    55
 72
    57
 73
    58
  0
VERTEX
  5
19D
330
FC
100
AcDbEntity
  8
Si40 Alu matt
 62
   254
420
 13618386
100
AcDbFaceRecord
 10
0.0
 20
0.0
 30
0.0
 70
   128
 71
    61
 72
    59
 73
    60
  0
VERTEX
  5
19E
330
FC
100
AcDbEntity
  8
Si40 Alu matt
 62
   254
420
 13618386
100
AcDbFaceRecord
 10
0.0
 20
0.0
 30
0.0
 70
   128
 71
    59
 72
    61
 73
    62
  0
VERTEX
  5
19F
330
FC
100
AcDbEntity
  8
Si40 Alu matt
 62
   254
420
 13618386
100
AcDbFaceRecord
 10
0.0
 20
0.0
 30
0.0
 70
   128
 71
    65
 72
    63
 73
    64
  0
VERTEX
  5
1A0
330
FC
100
AcDbEntity
  8
Si40 Alu matt
 62
   254
420
 13618386
100
AcDbFaceRecord
 10
0.0
 20
0.0
 30
0.0
 70
   128
 71
    63
 72
    65
 73
    66
  0
VERTEX
  5
1A1
330
FC
100
AcDbEntity
  8
Si40 Alu matt
 62
   254
420
 13618386
100
AcDbFaceRecord
 10
0.0
 20
0.0
 30
0.0
 70
   128
 71
    69
 72
    67
 73
    68
  0
VERTEX
  5
1A2
330
FC
100
AcDbEntity
  8
Si40 Alu matt
 62
   254
420
 13618386
100
AcDbFaceRecord
 10
0.0
 20
0.0
 30
0.0
 70
   128
 71
    67
 72
    69
 73
    70
  0
VERTEX
  5
1A3
330
FC
100
AcDbEntity
  8
Si40 Alu matt
 62
   254
420
 13618386
100
AcDbFaceRecord
 10
0.0
 20
0.0
 30
0.0
 70
   128
 71
    73
 72
    71
 73
    72
  0
VERTEX
  5
1A4
330
FC
100
AcDbEntity
  8
Si40 Alu matt
 62
   254
420
 13618386
100
AcDbFaceRecord
 10
0.0
 20
0.0
 30
0.0
 70
   128
 71
    71
 72
    73
 73
    74
  0
VERTEX
  5
1A5
330
FC
100
AcDbEntity
  8
Si40 Alu matt
 62
   254
420
 13618386
100
AcDbFaceRecord
 10
0.0
 20
0.0
 30
0.0
 70
   128
 71
    77
 72
    75
 73
    76
  0
VERTEX
  5
1A6
330
FC
100
AcDbEntity
  8
Si40 Alu matt
 62
   254
420
 13618386
100
AcDbFaceRecord
 10
0.0
 20
0.0
 30
0.0
 70
   128
 71
    75
 72
    77
 73
    78
  0
VERTEX
  5
1A7
330
FC
100
AcDbEntity
  8
Si40 Alu matt
 62
   254
420
 13618386
100
AcDbFaceRecord
 10
0.0
 20
0.0
 30
0.0
 70
   128
 71
    85
 72
    80
 73
    79
  0
VERTEX
  5
1A8
330
FC
100
AcDbEntity
  8
Si40 Alu matt
 62
   254
420
 13618386
100
AcDbFaceRecord
 10
0.0
 20
0.0
 30
0.0
 70
   128
 71
    79
 72
    80
 73
    81
  0
VERTEX
  5
1A9
330
FC
100
AcDbEntity
  8
Si40 Alu matt
 62
   254
420
 13618386
100
AcDbFaceRecord
 10
0.0
 20
0.0
 30
0.0
 70
   128
 71
    86
 72
    82
 73
    83
  0
VERTEX
  5
1AA
330
FC
100
AcDbEntity
  8
Si40 Alu matt
 62
   254
420
 13618386
100
AcDbFaceRecord
 10
0.0
 20
0.0
 30
0.0
 70
   128
 71
    86
 72
    84
 73
    82
  0
VERTEX
  5
1AB
330
FC
100
AcDbEntity
  8
Si40 Alu matt
 62
   254
420
 13618386
100
AcDbFaceRecord
 10
0.0
 20
0.0
 30
0.0
 70
   128
 71
    86
 72
    85
 73
    84
  0
VERTEX
  5
1AC
330
FC
100
AcDbEntity
  8
Si40 Alu matt
 62
   254
420
 13618386
100
AcDbFaceRecord
 10
0.0
 20
0.0
 30
0.0
 70
   128
 71
    80
 72
    85
 73
    86
  0
VERTEX
  5
1AD
330
FC
100
AcDbEntity
  8
Si40 Alu matt
 62
   254
420
 13618386
100
AcDbFaceRecord
 10
0.0
 20
0.0
 30
0.0
 70
   128
 71
    89
 72
    87
 73
    88
  0
VERTEX
  5
1AE
330
FC
100
AcDbEntity
  8
Si40 Alu matt
 62
   254
420
 13618386
100
AcDbFaceRecord
 10
0.0
 20
0.0
 30
0.0
 70
   128
 71
    87
 72
    89
 73
    90
  0
VERTEX
  5
1AF
330
FC
100
AcDbEntity
  8
Si40 Alu matt
 62
   254
420
 13618386
100
AcDbFaceRecord
 10
0.0
 20
0.0
 30
0.0
 70
   128
 71
    93
 72
    91
 73
    92
  0
VERTEX
  5
1B0
330
FC
100
AcDbEntity
  8
Si40 Alu matt
 62
   254
420
 13618386
100
AcDbFaceRecord
 10
0.0
 20
0.0
 30
0.0
 70
   128
 71
    91
 72
    93
 73
    94
  0
VERTEX
  5
1B1
330
FC
100
AcDbEntity
  8
Si40 Alu matt
 62
   254
420
 13618386
100
AcDbFaceRecord
 10
0.0
 20
0.0
 30
0.0
 70
   128
 71
    97
 72
    95
 73
    96
  0
VERTEX
  5
1B2
330
FC
100
AcDbEntity
  8
Si40 Alu matt
 62
   254
420
 13618386
100
AcDbFaceRecord
 10
0.0
 20
0.0
 30
0.0
 70
   128
 71
    99
 72
    97
 73
    98
  0
VERTEX
  5
1B3
330
FC
100
AcDbEntity
  8
Si40 Alu matt
 62
   254
420
 13618386
100
AcDbFaceRecord
 10
0.0
 20
0.0
 30
0.0
 70
   128
 71
   100
 72
    97
 73
    99
  0
VERTEX
  5
1B4
330
FC
100
AcDbEntity
  8
Si40 Alu matt
 62
   254
420
 13618386
100
AcDbFaceRecord
 10
0.0
 20
0.0
 30
0.0
 70
   128
 71
    95
 72
    97
 73
   100
  0
VERTEX
  5
1B5
330
FC
100
AcDbEntity
  8
Si40 Alu matt
 62
   254
420
 13618386
100
AcDbFaceRecord
 10
0.0
 20
0.0
 30
0.0
 70
   128
 71
   103
 72
   101
 73
   102
  0
VERTEX
  5
1B6
330
FC
100
AcDbEntity
  8
Si40 Alu matt
 62
   254
420
 13618386
100
AcDbFaceRecord
 10
0.0
 20
0.0
 30
0.0
 70
   128
 71
   101
 72
   103
 73
   104
  0
VERTEX
  5
1B7
330
FC
100
AcDbEntity
  8
Si40 Alu matt
 62
   254
420
 13618386
100
AcDbFaceRecord
 10
0.0
 20
0.0
 30
0.0
 70
   128
 71
   107
 72
   105
 73
   106
  0
VERTEX
  5
1B8
330
FC
100
AcDbEntity
  8
Si40 Alu matt
 62
   254
420
 13618386
100
AcDbFaceRecord
 10
0.0
 20
0.0
 30
0.0
 70
   128
 71
   105
 72
   107
 73
   108
  0
VERTEX
  5
1B9
330
FC
100
AcDbEntity
  8
Si40 Alu matt
 62
   254
420
 13618386
100
AcDbFaceRecord
 10
0.0
 20
0.0
 30
0.0
 70
   128
 71
   113
 72
   109
 73
   110
  0
VERTEX
  5
1BA
330
FC
100
AcDbEntity
  8
Si40 Alu matt
 62
   254
420
 13618386
100
AcDbFaceRecord
 10
0.0
 20
0.0
 30
0.0
 70
   128
 71
   114
 72
   111
 73
   112
  0
VERTEX
  5
1BB
330
FC
100
AcDbEntity
  8
Si40 Alu matt
 62
   254
420
 13618386
100
AcDbFaceRecord
 10
0.0
 20
0.0
 30
0.0
 70
   128
 71
   114
 72
   113
 73
   111
  0
VERTEX
  5
1BC
330
FC
100
AcDbEntity
  8
Si40 Alu matt
 62
   254
420
 13618386
100
AcDbFaceRecord
 10
0.0
 20
0.0
 30
0.0
 70
   128
 71
   115
 72
   113
 73
   114
  0
VERTEX
  5
1BD
330
FC
100
AcDbEntity
  8
Si40 Alu matt
 62
   254
420
 13618386
100
AcDbFaceRecord
 10
0.0
 20
0.0
 30
0.0
 70
   128
 71
   116
 72
   113
 73
   115
  0
VERTEX
  5
1BE
330
FC
100
AcDbEntity
  8
Si40 Alu matt
 62
   254
420
 13618386
100
AcDbFaceRecord
 10
0.0
 20
0.0
 30
0.0
 70
   128
 71
   109
 72
   113
 73
   116
  0
VERTEX
  5
1BF
330
FC
100
AcDbEntity
  8
Si40 Alu matt
 62
   254
420
 13618386
100
AcDbFaceRecord
 10
0.0
 20
0.0
 30
0.0
 70
   128
 71
   124
 72
   117
 73
   118
  0
VERTEX
  5
1C0
330
FC
100
AcDbEntity
  8
Si40 Alu matt
 62
   254
420
 13618386
100
AcDbFaceRecord
 10
0.0
 20
0.0
 30
0.0
 70
   128
 71
   124
 72
   118
 73
   119
  0
VERTEX
  5
1C1
330
FC
100
AcDbEntity
  8
Si40 Alu matt
 62
   254
420
 13618386
100
AcDbFaceRecord
 10
0.0
 20
0.0
 30
0.0
 70
   128
 71
   122
 72
   120
 73
   121
  0
VERTEX
  5
1C2
330
FC
100
AcDbEntity
  8
Si40 Alu matt
 62
   254
420
 13618386
100
AcDbFaceRecord
 10
0.0
 20
0.0
 30
0.0
 70
   128
 71
   123
 72
   120
 73
   122
  0
VERTEX
  5
1C3
330
FC
100
AcDbEntity
  8
Si40 Alu matt
 62
   254
420
 13618386
100
AcDbFaceRecord
 10
0.0
 20
0.0
 30
0.0
 70
   128
 71
   117
 72
   120
 73
   123
  0
VERTEX
  5
1C4
330
FC
100
AcDbEntity
  8
Si40 Alu matt
 62
   254
420
 13618386
100
AcDbFaceRecord
 10
0.0
 20
0.0
 30
0.0
 70
   128
 71
   117
 72
   124
 73
   120
  0
SEQEND
  5
1C5
330
FC
100
AcDbEntity
  8
Si40 Alu matt
 62
   254
420
 13618386
  0
POLYLINE
  5
1C6
102
{ACAD_REACTORS
330
39F
330
39E
102
}
330
1F
100
AcDbEntity
  8
Si90 Lampe weiss
 62
     7
420
 16777215
100
AcDbPolyFaceMesh
 66
     1
 10
0.0
 20
0.0
 30
0.0
 70
    64
 71
    24
 72
    12
  0
VERTEX
  5
1C7
330
1C6
100
AcDbEntity
  8
Si90 Lampe weiss
 62
     7
420
 16777215
100
AcDbVertex
100
AcDbPolyFaceMeshVertex
 10
21.10009384155274
 20
1290.60205078125
 30
2195.0
 70
   192
  0
VERTEX
  5
1C8
330
1C6
100
AcDbEntity
  8
Si90 Lampe weiss
 62
     7
420
 16777215
100
AcDbVertex
100
AcDbPolyFaceMeshVertex
 10
-21.09990692138672
 20
1290.60205078125
 30
2195.0
 70
   192
  0
VERTEX
  5
1C9
330
1C6
100
AcDbEntity
  8
Si90 Lampe weiss
 62
     7
420
 16777215
100
AcDbVertex
100
AcDbPolyFaceMeshVertex
 10
-21.09990501403808
 20
1290.60205078125
 30
2200.0
 70
   192
  0
VERTEX
  5
1CA
330
1C6
100
AcDbEntity
  8
Si90 Lampe weiss
 62
     7
420
 16777215
100
AcDbVertex
100
AcDbPolyFaceMeshVertex
 10
21.10009574890137
 20
1290.60205078125
 30
2200.0
 70
   192
  0
VERTEX
  5
1CB
330
1C6
100
AcDbEntity
  8
Si90 Lampe weiss
 62
     7
420
 16777215
100
AcDbVertex
100
AcDbPolyFaceMeshVertex
 10
-21.10009765625
 20
111.902099609375
 30
2195.0
 70
   192
  0
VERTEX
  5
1CC
330
1C6
100
AcDbEntity
  8
Si90 Lampe weiss
 62
     7
420
 16777215
100
AcDbVertex
100
AcDbPolyFaceMeshVertex
 10
-21.10009574890137
 20
111.902099609375
 30
2200.0
 70
   192
  0
VERTEX
  5
1CD
330
1C6
100
AcDbEntity
  8
Si90 Lampe weiss
 62
     7
420
 16777215
100
AcDbVertex
100
AcDbPolyFaceMeshVertex
 10
-21.09990501403808
 20
1290.60205078125
 30
2200.0
 70
   192
  0
VERTEX
  5
1CE
330
1C6
100
AcDbEntity
  8
Si90 Lampe weiss
 62
     7
420
 16777215
100
AcDbVertex
100
AcDbPolyFaceMeshVertex
 10
-21.09990692138672
 20
1290.60205078125
 30
2195.0
 70
   192
  0
VERTEX
  5
1CF
330
1C6
100
AcDbEntity
  8
Si90 Lampe weiss
 62
     7
420
 16777215
100
AcDbVertex
100
AcDbPolyFaceMeshVertex
 10
21.09990310668945
 20
111.902099609375
 30
2195.0
 70
   192
  0
VERTEX
  5
1D0
330
1C6
100
AcDbEntity
  8
Si90 Lampe weiss
 62
     7
420
 16777215
100
AcDbVertex
100
AcDbPolyFaceMeshVertex
 10
21.09990501403808
 20
111.902099609375
 30
2200.0
 70
   192
  0
VERTEX
  5
1D1
330
1C6
100
AcDbEntity
  8
Si90 Lampe weiss
 62
     7
420
 16777215
100
AcDbVertex
100
AcDbPolyFaceMeshVertex
 10
-21.10009574890137
 20
111.902099609375
 30
2200.0
 70
   192
  0
VERTEX
  5
1D2
330
1C6
100
AcDbEntity
  8
Si90 Lampe weiss
 62
     7
420
 16777215
100
AcDbVertex
100
AcDbPolyFaceMeshVertex
 10
-21.10009765625
 20
111.902099609375
 30
2195.0
 70
   192
  0
VERTEX
  5
1D3
330
1C6
100
AcDbEntity
  8
Si90 Lampe weiss
 62
     7
420
 16777215
100
AcDbVertex
100
AcDbPolyFaceMeshVertex
 10
21.10009384155274
 20
1290.60205078125
 30
2195.0
 70
   192
  0
VERTEX
  5
1D4
330
1C6
100
AcDbEntity
  8
Si90 Lampe weiss
 62
     7
420
 16777215
100
AcDbVertex
100
AcDbPolyFaceMeshVertex
 10
21.10009574890137
 20
1290.60205078125
 30
2200.0
 70
   192
  0
VERTEX
  5
1D5
330
1C6
100
AcDbEntity
  8
Si90 Lampe weiss
 62
     7
420
 16777215
100
AcDbVertex
100
AcDbPolyFaceMeshVertex
 10
21.09990501403808
 20
111.902099609375
 30
2200.0
 70
   192
  0
VERTEX
  5
1D6
330
1C6
100
AcDbEntity
  8
Si90 Lampe weiss
 62
     7
420
 16777215
100
AcDbVertex
100
AcDbPolyFaceMeshVertex
 10
21.09990310668945
 20
111.902099609375
 30
2195.0
 70
   192
  0
VERTEX
  5
1D7
330
1C6
100
AcDbEntity
  8
Si90 Lampe weiss
 62
     7
420
 16777215
100
AcDbVertex
100
AcDbPolyFaceMeshVertex
 10
-21.09990692138672
 20
1290.60205078125
 30
2195.0
 70
   192
  0
VERTEX
  5
1D8
330
1C6
100
AcDbEntity
  8
Si90 Lampe weiss
 62
     7
420
 16777215
100
AcDbVertex
100
AcDbPolyFaceMeshVertex
 10
21.10009384155274
 20
1290.60205078125
 30
2195.0
 70
   192
  0
VERTEX
  5
1D9
330
1C6
100
AcDbEntity
  8
Si90 Lampe weiss
 62
     7
420
 16777215
100
AcDbVertex
100
AcDbPolyFaceMeshVertex
 10
21.09990310668945
 20
111.902099609375
 30
2195.0
 70
   192
  0
VERTEX
  5
1DA
330
1C6
100
AcDbEntity
  8
Si90 Lampe weiss
 62
     7
420
 16777215
100
AcDbVertex
100
AcDbPolyFaceMeshVertex
 10
-21.10009765625
 20
111.902099609375
 30
2195.0
 70
   192
  0
VERTEX
  5
1DB
330
1C6
100
AcDbEntity
  8
Si90 Lampe weiss
 62
     7
420
 16777215
100
AcDbVertex
100
AcDbPolyFaceMeshVertex
 10
-21.10009574890137
 20
111.902099609375
 30
2200.0
 70
   192
  0
VERTEX
  5
1DC
330
1C6
100
AcDbEntity
  8
Si90 Lampe weiss
 62
     7
420
 16777215
100
AcDbVertex
100
AcDbPolyFaceMeshVertex
 10
21.09990501403808
 20
111.902099609375
 30
2200.0
 70
   192
  0
VERTEX
  5
1DD
330
1C6
100
AcDbEntity
  8
Si90 Lampe weiss
 62
     7
420
 16777215
100
AcDbVertex
100
AcDbPolyFaceMeshVertex
 10
21.10009574890137
 20
1290.60205078125
 30
2200.0
 70
   192
  0
VERTEX
  5
1DE
330
1C6
100
AcDbEntity
  8
Si90 Lampe weiss
 62
     7
420
 16777215
100
AcDbVertex
100
AcDbPolyFaceMeshVertex
 10
-21.09990501403808
 20
1290.60205078125
 30
2200.0
 70
   192
  0
VERTEX
  5
1DF
330
1C6
100
AcDbEntity
  8
Si90 Lampe weiss
 62
     7
420
 16777215
100
AcDbFaceRecord
 10
0.0
 20
0.0
 30
0.0
 70
   128
 71
     3
 72
     1
 73
     2
  0
VERTEX
  5
1E0
330
1C6
100
AcDbEntity
  8
Si90 Lampe weiss
 62
     7
420
 16777215
100
AcDbFaceRecord
 10
0.0
 20
0.0
 30
0.0
 70
   128
 71
     1
 72
     3
 73
     4
  0
VERTEX
  5
1E1
330
1C6
100
AcDbEntity
  8
Si90 Lampe weiss
 62
     7
420
 16777215
100
AcDbFaceRecord
 10
0.0
 20
0.0
 30
0.0
 70
   128
 71
     7
 72
     5
 73
     6
  0
VERTEX
  5
1E2
330
1C6
100
AcDbEntity
  8
Si90 Lampe weiss
 62
     7
420
 16777215
100
AcDbFaceRecord
 10
0.0
 20
0.0
 30
0.0
 70
   128
 71
     5
 72
     7
 73
     8
  0
VERTEX
  5
1E3
330
1C6
100
AcDbEntity
  8
Si90 Lampe weiss
 62
     7
420
 16777215
100
AcDbFaceRecord
 10
0.0
 20
0.0
 30
0.0
 70
   128
 71
    11
 72
     9
 73
    10
  0
VERTEX
  5
1E4
330
1C6
100
AcDbEntity
  8
Si90 Lampe weiss
 62
     7
420
 16777215
100
AcDbFaceRecord
 10
0.0
 20
0.0
 30
0.0
 70
   128
 71
     9
 72
    11
 73
    12
  0
VERTEX
  5
1E5
330
1C6
100
AcDbEntity
  8
Si90 Lampe weiss
 62
     7
420
 16777215
100
AcDbFaceRecord
 10
0.0
 20
0.0
 30
0.0
 70
   128
 71
    15
 72
    13
 73
    14
  0
VERTEX
  5
1E6
330
1C6
100
AcDbEntity
  8
Si90 Lampe weiss
 62
     7
420
 16777215
100
AcDbFaceRecord
 10
0.0
 20
0.0
 30
0.0
 70
   128
 71
    13
 72
    15
 73
    16
  0
VERTEX
  5
1E7
330
1C6
100
AcDbEntity
  8
Si90 Lampe weiss
 62
     7
420
 16777215
100
AcDbFaceRecord
 10
0.0
 20
0.0
 30
0.0
 70
   128
 71
    19
 72
    17
 73
    18
  0
VERTEX
  5
1E8
330
1C6
100
AcDbEntity
  8
Si90 Lampe weiss
 62
     7
420
 16777215
100
AcDbFaceRecord
 10
0.0
 20
0.0
 30
0.0
 70
   128
 71
    17
 72
    19
 73
    20
  0
VERTEX
  5
1E9
330
1C6
100
AcDbEntity
  8
Si90 Lampe weiss
 62
     7
420
 16777215
100
AcDbFaceRecord
 10
0.0
 20
0.0
 30
0.0
 70
   128
 71
    23
 72
    21
 73
    22
  0
VERTEX
  5
1EA
330
1C6
100
AcDbEntity
  8
Si90 Lampe weiss
 62
     7
420
 16777215
100
AcDbFaceRecord
 10
0.0
 20
0.0
 30
0.0
 70
   128
 71
    21
 72
    23
 73
    24
  0
SEQEND
  5
1EB
330
1C6
100
AcDbEntity
  8
Si90 Lampe weiss
 62
     7
420
 16777215
  0
POLYLINE
  5
1EC
102
{ACAD_REACTORS
330
39F
330
39E
102
}
330
1F
100
AcDbEntity
  8
Si90 Lampe weiss
 62
     7
420
 16777215
100
AcDbPolyFaceMesh
 66
     1
 10
0.0
 20
0.0
 30
0.0
 70
    64
 71
    24
 72
    12
  0
VERTEX
  5
1ED
330
1EC
100
AcDbEntity
  8
Si90 Lampe weiss
 62
     7
420
 16777215
100
AcDbVertex
100
AcDbPolyFaceMeshVertex
 10
-29.99990844726563
 20
1265.552001953125
 30
2161.5
 70
   192
  0
VERTEX
  5
1EE
330
1EC
100
AcDbEntity
  8
Si90 Lampe weiss
 62
     7
420
 16777215
100
AcDbVertex
100
AcDbPolyFaceMeshVertex
 10
-29.99990653991699
 20
1265.552001953125
 30
2166.5
 70
   192
  0
VERTEX
  5
1EF
330
1EC
100
AcDbEntity
  8
Si90 Lampe weiss
 62
     7
420
 16777215
100
AcDbVertex
100
AcDbPolyFaceMeshVertex
 10
30.00009346008301
 20
1265.552001953125
 30
2166.5
 70
   192
  0
VERTEX
  5
1F0
330
1EC
100
AcDbEntity
  8
Si90 Lampe weiss
 62
     7
420
 16777215
100
AcDbVertex
100
AcDbPolyFaceMeshVertex
 10
30.00009155273438
 20
1265.552001953125
 30
2161.5
 70
   192
  0
VERTEX
  5
1F1
330
1EC
100
AcDbEntity
  8
Si90 Lampe weiss
 62
     7
420
 16777215
100
AcDbVertex
100
AcDbPolyFaceMeshVertex
 10
-30.00009536743164
 20
118.552001953125
 30
2161.5
 70
   192
  0
VERTEX
  5
1F2
330
1EC
100
AcDbEntity
  8
Si90 Lampe weiss
 62
     7
420
 16777215
100
AcDbVertex
100
AcDbPolyFaceMeshVertex
 10
-30.00009346008301
 20
118.552001953125
 30
2166.5
 70
   192
  0
VERTEX
  5
1F3
330
1EC
100
AcDbEntity
  8
Si90 Lampe weiss
 62
     7
420
 16777215
100
AcDbVertex
100
AcDbPolyFaceMeshVertex
 10
-29.99990653991699
 20
1265.552001953125
 30
2166.5
 70
   192
  0
VERTEX
  5
1F4
330
1EC
100
AcDbEntity
  8
Si90 Lampe weiss
 62
     7
420
 16777215
100
AcDbVertex
100
AcDbPolyFaceMeshVertex
 10
-29.99990844726563
 20
1265.552001953125
 30
2161.5
 70
   192
  0
VERTEX
  5
1F5
330
1EC
100
AcDbEntity
  8
Si90 Lampe weiss
 62
     7
420
 16777215
100
AcDbVertex
100
AcDbPolyFaceMeshVertex
 10
29.99990463256836
 20
118.552001953125
 30
2161.5
 70
   192
  0
VERTEX
  5
1F6
330
1EC
100
AcDbEntity
  8
Si90 Lampe weiss
 62
     7
420
 16777215
100
AcDbVertex
100
AcDbPolyFaceMeshVertex
 10
29.99990653991699
 20
118.552001953125
 30
2166.5
 70
   192
  0
VERTEX
  5
1F7
330
1EC
100
AcDbEntity
  8
Si90 Lampe weiss
 62
     7
420
 16777215
100
AcDbVertex
100
AcDbPolyFaceMeshVertex
 10
-30.00009346008301
 20
118.552001953125
 30
2166.5
 70
   192
  0
VERTEX
  5
1F8
330
1EC
100
AcDbEntity
  8
Si90 Lampe weiss
 62
     7
420
 16777215
100
AcDbVertex
100
AcDbPolyFaceMeshVertex
 10
-30.00009536743164
 20
118.552001953125
 30
2161.5
 70
   192
  0
VERTEX
  5
1F9
330
1EC
100
AcDbEntity
  8
Si90 Lampe weiss
 62
     7
420
 16777215
100
AcDbVertex
100
AcDbPolyFaceMeshVertex
 10
30.00009155273438
 20
1265.552001953125
 30
2161.5
 70
   192
  0
VERTEX
  5
1FA
330
1EC
100
AcDbEntity
  8
Si90 Lampe weiss
 62
     7
420
 16777215
100
AcDbVertex
100
AcDbPolyFaceMeshVertex
 10
30.00009346008301
 20
1265.552001953125
 30
2166.5
 70
   192
  0
VERTEX
  5
1FB
330
1EC
100
AcDbEntity
  8
Si90 Lampe weiss
 62
     7
420
 16777215
100
AcDbVertex
100
AcDbPolyFaceMeshVertex
 10
29.99990653991699
 20
118.552001953125
 30
2166.5
 70
   192
  0
VERTEX
  5
1FC
330
1EC
100
AcDbEntity
  8
Si90 Lampe weiss
 62
     7
420
 16777215
100
AcDbVertex
100
AcDbPolyFaceMeshVertex
 10
29.99990463256836
 20
118.552001953125
 30
2161.5
 70
   192
  0
VERTEX
  5
1FD
330
1EC
100
AcDbEntity
  8
Si90 Lampe weiss
 62
     7
420
 16777215
100
AcDbVertex
100
AcDbPolyFaceMeshVertex
 10
-29.99990844726563
 20
1265.552001953125
 30
2161.5
 70
   192
  0
VERTEX
  5
1FE
330
1EC
100
AcDbEntity
  8
Si90 Lampe weiss
 62
     7
420
 16777215
100
AcDbVertex
100
AcDbPolyFaceMeshVertex
 10
30.00009155273438
 20
1265.552001953125
 30
2161.5
 70
   192
  0
VERTEX
  5
1FF
330
1EC
100
AcDbEntity
  8
Si90 Lampe weiss
 62
     7
420
 16777215
100
AcDbVertex
100
AcDbPolyFaceMeshVertex
 10
29.99990463256836
 20
118.552001953125
 30
2161.5
 70
   192
  0
VERTEX
  5
200
330
1EC
100
AcDbEntity
  8
Si90 Lampe weiss
 62
     7
420
 16777215
100
AcDbVertex
100
AcDbPolyFaceMeshVertex
 10
-30.00009536743164
 20
118.552001953125
 30
2161.5
 70
   192
  0
VERTEX
  5
201
330
1EC
100
AcDbEntity
  8
Si90 Lampe weiss
 62
     7
420
 16777215
100
AcDbVertex
100
AcDbPolyFaceMeshVertex
 10
-30.00009346008301
 20
118.552001953125
 30
2166.5
 70
   192
  0
VERTEX
  5
202
330
1EC
100
AcDbEntity
  8
Si90 Lampe weiss
 62
     7
420
 16777215
100
AcDbVertex
100
AcDbPolyFaceMeshVertex
 10
29.99990653991699
 20
118.552001953125
 30
2166.5
 70
   192
  0
VERTEX
  5
203
330
1EC
100
AcDbEntity
  8
Si90 Lampe weiss
 62
     7
420
 16777215
100
AcDbVertex
100
AcDbPolyFaceMeshVertex
 10
30.00009346008301
 20
1265.552001953125
 30
2166.5
 70
   192
  0
VERTEX
  5
204
330
1EC
100
AcDbEntity
  8
Si90 Lampe weiss
 62
     7
420
 16777215
100
AcDbVertex
100
AcDbPolyFaceMeshVertex
 10
-29.99990653991699
 20
1265.552001953125
 30
2166.5
 70
   192
  0
VERTEX
  5
205
330
1EC
100
AcDbEntity
  8
Si90 Lampe weiss
 62
     7
420
 16777215
100
AcDbFaceRecord
 10
0.0
 20
0.0
 30
0.0
 70
   128
 71
     3
 72
     1
 73
     2
  0
VERTEX
  5
206
330
1EC
100
AcDbEntity
  8
Si90 Lampe weiss
 62
     7
420
 16777215
100
AcDbFaceRecord
 10
0.0
 20
0.0
 30
0.0
 70
   128
 71
     1
 72
     3
 73
     4
  0
VERTEX
  5
207
330
1EC
100
AcDbEntity
  8
Si90 Lampe weiss
 62
     7
420
 16777215
100
AcDbFaceRecord
 10
0.0
 20
0.0
 30
0.0
 70
   128
 71
     7
 72
     5
 73
     6
  0
VERTEX
  5
208
330
1EC
100
AcDbEntity
  8
Si90 Lampe weiss
 62
     7
420
 16777215
100
AcDbFaceRecord
 10
0.0
 20
0.0
 30
0.0
 70
   128
 71
     5
 72
     7
 73
     8
  0
VERTEX
  5
209
330
1EC
100
AcDbEntity
  8
Si90 Lampe weiss
 62
     7
420
 16777215
100
AcDbFaceRecord
 10
0.0
 20
0.0
 30
0.0
 70
   128
 71
    11
 72
     9
 73
    10
  0
VERTEX
  5
20A
330
1EC
100
AcDbEntity
  8
Si90 Lampe weiss
 62
     7
420
 16777215
100
AcDbFaceRecord
 10
0.0
 20
0.0
 30
0.0
 70
   128
 71
     9
 72
    11
 73
    12
  0
VERTEX
  5
20B
330
1EC
100
AcDbEntity
  8
Si90 Lampe weiss
 62
     7
420
 16777215
100
AcDbFaceRecord
 10
0.0
 20
0.0
 30
0.0
 70
   128
 71
    15
 72
    13
 73
    14
  0
VERTEX
  5
20C
330
1EC
100
AcDbEntity
  8
Si90 Lampe weiss
 62
     7
420
 16777215
100
AcDbFaceRecord
 10
0.0
 20
0.0
 30
0.0
 70
   128
 71
    13
 72
    15
 73
    16
  0
VERTEX
  5
20D
330
1EC
100
AcDbEntity
  8
Si90 Lampe weiss
 62
     7
420
 16777215
100
AcDbFaceRecord
 10
0.0
 20
0.0
 30
0.0
 70
   128
 71
    19
 72
    17
 73
    18
  0
VERTEX
  5
20E
330
1EC
100
AcDbEntity
  8
Si90 Lampe weiss
 62
     7
420
 16777215
100
AcDbFaceRecord
 10
0.0
 20
0.0
 30
0.0
 70
   128
 71
    17
 72
    19
 73
    20
  0
VERTEX
  5
20F
330
1EC
100
AcDbEntity
  8
Si90 Lampe weiss
 62
     7
420
 16777215
100
AcDbFaceRecord
 10
0.0
 20
0.0
 30
0.0
 70
   128
 71
    23
 72
    21
 73
    22
  0
VERTEX
  5
210
330
1EC
100
AcDbEntity
  8
Si90 Lampe weiss
 62
     7
420
 16777215
100
AcDbFaceRecord
 10
0.0
 20
0.0
 30
0.0
 70
   128
 71
    21
 72
    23
 73
    24
  0
SEQEND
  5
211
330
1EC
100
AcDbEntity
  8
Si90 Lampe weiss
 62
     7
420
 16777215
  0
POLYLINE
  5
212
102
{ACAD_REACTORS
330
3A0
330
39E
102
}
330
1F
100
AcDbEntity
  8
Vorgabe
 62
     9
420
 12566463
100
AcDbPolyFaceMesh
 66
     1
 10
0.0
 20
0.0
 30
0.0
 70
    64
 71
   192
 72
   124
  0
VERTEX
  5
213
330
212
100
AcDbEntity
  8
Vorgabe
 62
     9
420
 12566463
100
AcDbVertex
100
AcDbPolyFaceMeshVertex
 10
-117.9999923706054
 20
-29.25
 30
5.0001220703125
 70
   192
  0
VERTEX
  5
214
330
212
100
AcDbEntity
  8
Vorgabe
 62
     9
420
 12566463
100
AcDbVertex
100
AcDbPolyFaceMeshVertex
 10
-117.9999923706054
 20
-29.25
 30
15.0001220703125
 70
   192
  0
VERTEX
  5
215
330
212
100
AcDbEntity
  8
Vorgabe
 62
     9
420
 12566463
100
AcDbVertex
100
AcDbPolyFaceMeshVertex
 10
-119.9999923706055
 20
-27.25
 30
15.0001220703125
 70
   192
  0
VERTEX
  5
216
330
212
100
AcDbEntity
  8
Vorgabe
 62
     9
420
 12566463
100
AcDbVertex
100
AcDbPolyFaceMeshVertex
 10
-119.9999923706055
 20
-27.25
 30
5.0001220703125
 70
   192
  0
VERTEX
  5
217
330
212
100
AcDbEntity
  8
Vorgabe
 62
     9
420
 12566463
100
AcDbVertex
100
AcDbPolyFaceMeshVertex
 10
118.0000076293945
 20
-29.25
 30
15.0001220703125
 70
   192
  0
VERTEX
  5
218
330
212
100
AcDbEntity
  8
Vorgabe
 62
     9
420
 12566463
100
AcDbVertex
100
AcDbPolyFaceMeshVertex
 10
-117.9999923706054
 20
-29.25
 30
15.0001220703125
 70
   192
  0
VERTEX
  5
219
330
212
100
AcDbEntity
  8
Vorgabe
 62
     9
420
 12566463
100
AcDbVertex
100
AcDbPolyFaceMeshVertex
 10
-117.9999923706054
 20
-29.25
 30
5.0001220703125
 70
   192
  0
VERTEX
  5
21A
330
212
100
AcDbEntity
  8
Vorgabe
 62
     9
420
 12566463
100
AcDbVertex
100
AcDbPolyFaceMeshVertex
 10
118.0000076293945
 20
-29.25
 30
5.0001220703125
 70
   192
  0
VERTEX
  5
21B
330
212
100
AcDbEntity
  8
Vorgabe
 62
     9
420
 12566463
100
AcDbVertex
100
AcDbPolyFaceMeshVertex
 10
-78.50000762939453
 20
443.4006347656249
 30
5.0001220703125
 70
   192
  0
VERTEX
  5
21C
330
212
100
AcDbEntity
  8
Vorgabe
 62
     9
420
 12566463
100
AcDbVertex
100
AcDbPolyFaceMeshVertex
 10
118.0000076293945
 20
-29.25
 30
5.0001220703125
 70
   192
  0
VERTEX
  5
21D
330
212
100
AcDbEntity
  8
Vorgabe
 62
     9
420
 12566463
100
AcDbVertex
100
AcDbPolyFaceMeshVertex
 10
-103.4999923706054
 20
-21.900634765625
 30
5.0001220703125
 70
   192
  0
VERTEX
  5
21E
330
212
100
AcDbEntity
  8
Vorgabe
 62
     9
420
 12566463
100
AcDbVertex
100
AcDbPolyFaceMeshVertex
 10
-118.0000076293945
 20
450.75
 30
5.0001220703125
 70
   192
  0
VERTEX
  5
21F
330
212
100
AcDbEntity
  8
Vorgabe
 62
     9
420
 12566463
100
AcDbVertex
100
AcDbPolyFaceMeshVertex
 10
103.4999923706054
 20
443.4006347656249
 30
5.0001220703125
 70
   192
  0
VERTEX
  5
220
330
212
100
AcDbEntity
  8
Vorgabe
 62
     9
420
 12566463
100
AcDbVertex
100
AcDbPolyFaceMeshVertex
 10
78.49999237060547
 20
443.4006347656249
 30
5.0001220703125
 70
   192
  0
VERTEX
  5
221
330
212
100
AcDbEntity
  8
Vorgabe
 62
     9
420
 12566463
100
AcDbVertex
100
AcDbPolyFaceMeshVertex
 10
-78.49999237060547
 20
-21.900634765625
 30
5.0001220703125
 70
   192
  0
VERTEX
  5
222
330
212
100
AcDbEntity
  8
Vorgabe
 62
     9
420
 12566463
100
AcDbVertex
100
AcDbPolyFaceMeshVertex
 10
103.5000076293945
 20
-21.900634765625
 30
5.0001220703125
 70
   192
  0
VERTEX
  5
223
330
212
100
AcDbEntity
  8
Vorgabe
 62
     9
420
 12566463
100
AcDbVertex
100
AcDbPolyFaceMeshVertex
 10
120.0000076293945
 20
-27.25
 30
5.0001220703125
 70
   192
  0
VERTEX
  5
224
330
212
100
AcDbEntity
  8
Vorgabe
 62
     9
420
 12566463
100
AcDbVertex
100
AcDbPolyFaceMeshVertex
 10
119.9999923706055
 20
448.7499999999999
 30
5.0001220703125
 70
   192
  0
VERTEX
  5
225
330
212
100
AcDbEntity
  8
Vorgabe
 62
     9
420
 12566463
100
AcDbVertex
100
AcDbPolyFaceMeshVertex
 10
116.0000076293945
 20
-0.25
 30
5.0001220703125
 70
   192
  0
VERTEX
  5
226
330
212
100
AcDbEntity
  8
Vorgabe
 62
     9
420
 12566463
100
AcDbVertex
100
AcDbPolyFaceMeshVertex
 10
115.9999923706054
 20
421.75
 30
5.0001220703125
 70
   192
  0
VERTEX
  5
227
330
212
100
AcDbEntity
  8
Vorgabe
 62
     9
420
 12566463
100
AcDbVertex
100
AcDbPolyFaceMeshVertex
 10
117.9999923706054
 20
450.75
 30
5.0001220703125
 70
   192
  0
VERTEX
  5
228
330
212
100
AcDbEntity
  8
Vorgabe
 62
     9
420
 12566463
100
AcDbVertex
100
AcDbPolyFaceMeshVertex
 10
103.4999923706054
 20
400.0993652343749
 30
5.0001220703125
 70
   192
  0
VERTEX
  5
229
330
212
100
AcDbEntity
  8
Vorgabe
 62
     9
420
 12566463
100
AcDbVertex
100
AcDbPolyFaceMeshVertex
 10
-103.5000076293945
 20
443.4006347656249
 30
5.0001220703125
 70
   192
  0
VERTEX
  5
22A
330
212
100
AcDbEntity
  8
Vorgabe
 62
     9
420
 12566463
100
AcDbVertex
100
AcDbPolyFaceMeshVertex
 10
-120.0000076293945
 20
448.7499999999999
 30
5.0001220703125
 70
   192
  0
VERTEX
  5
22B
330
212
100
AcDbEntity
  8
Vorgabe
 62
     9
420
 12566463
100
AcDbVertex
100
AcDbPolyFaceMeshVertex
 10
-119.9999923706055
 20
-27.25
 30
5.0001220703125
 70
   192
  0
VERTEX
  5
22C
330
212
100
AcDbEntity
  8
Vorgabe
 62
     9
420
 12566463
100
AcDbVertex
100
AcDbPolyFaceMeshVertex
 10
-116.0000076293945
 20
421.75
 30
5.0001220703125
 70
   192
  0
VERTEX
  5
22D
330
212
100
AcDbEntity
  8
Vorgabe
 62
     9
420
 12566463
100
AcDbVertex
100
AcDbPolyFaceMeshVertex
 10
-115.9999923706054
 20
-0.25
 30
5.0001220703125
 70
   192
  0
VERTEX
  5
22E
330
212
100
AcDbEntity
  8
Vorgabe
 62
     9
420
 12566463
100
AcDbVertex
100
AcDbPolyFaceMeshVertex
 10
-117.9999923706054
 20
-29.25
 30
5.0001220703125
 70
   192
  0
VERTEX
  5
22F
330
212
100
AcDbEntity
  8
Vorgabe
 62
     9
420
 12566463
100
AcDbVertex
100
AcDbPolyFaceMeshVertex
 10
-103.4999923706054
 20
21.400634765625
 30
5.0001220703125
 70
   192
  0
VERTEX
  5
230
330
212
100
AcDbEntity
  8
Vorgabe
 62
     9
420
 12566463
100
AcDbVertex
100
AcDbPolyFaceMeshVertex
 10
-103.5000076293945
 20
400.0993652343749
 30
5.0001220703125
 70
   192
  0
VERTEX
  5
231
330
212
100
AcDbEntity
  8
Vorgabe
 62
     9
420
 12566463
100
AcDbVertex
100
AcDbPolyFaceMeshVertex
 10
-78.49999237060547
 20
21.400634765625
 30
5.0001220703125
 70
   192
  0
VERTEX
  5
232
330
212
100
AcDbEntity
  8
Vorgabe
 62
     9
420
 12566463
100
AcDbVertex
100
AcDbPolyFaceMeshVertex
 10
103.5000076293945
 20
21.400634765625
 30
5.0001220703125
 70
   192
  0
VERTEX
  5
233
330
212
100
AcDbEntity
  8
Vorgabe
 62
     9
420
 12566463
100
AcDbVertex
100
AcDbPolyFaceMeshVertex
 10
78.49999237060547
 20
400.0993652343749
 30
5.0001220703125
 70
   192
  0
VERTEX
  5
234
330
212
100
AcDbEntity
  8
Vorgabe
 62
     9
420
 12566463
100
AcDbVertex
100
AcDbPolyFaceMeshVertex
 10
65.99999237060547
 20
421.75
 30
5.0001220703125
 70
   192
  0
VERTEX
  5
235
330
212
100
AcDbEntity
  8
Vorgabe
 62
     9
420
 12566463
100
AcDbVertex
100
AcDbPolyFaceMeshVertex
 10
78.50000762939453
 20
21.400634765625
 30
5.0001220703125
 70
   192
  0
VERTEX
  5
236
330
212
100
AcDbEntity
  8
Vorgabe
 62
     9
420
 12566463
100
AcDbVertex
100
AcDbPolyFaceMeshVertex
 10
-78.50000762939453
 20
400.0993652343749
 30
5.0001220703125
 70
   192
  0
VERTEX
  5
237
330
212
100
AcDbEntity
  8
Vorgabe
 62
     9
420
 12566463
100
AcDbVertex
100
AcDbPolyFaceMeshVertex
 10
-65.99999237060547
 20
-0.25
 30
5.0001220703125
 70
   192
  0
VERTEX
  5
238
330
212
100
AcDbEntity
  8
Vorgabe
 62
     9
420
 12566463
100
AcDbVertex
100
AcDbPolyFaceMeshVertex
 10
78.50000762939453
 20
-21.900634765625
 30
5.0001220703125
 70
   192
  0
VERTEX
  5
239
330
212
100
AcDbEntity
  8
Vorgabe
 62
     9
420
 12566463
100
AcDbVertex
100
AcDbPolyFaceMeshVertex
 10
66.00000762939453
 20
-0.25
 30
5.0001220703125
 70
   192
  0
VERTEX
  5
23A
330
212
100
AcDbEntity
  8
Vorgabe
 62
     9
420
 12566463
100
AcDbVertex
100
AcDbPolyFaceMeshVertex
 10
-66.00000762939453
 20
421.75
 30
5.0001220703125
 70
   192
  0
VERTEX
  5
23B
330
212
100
AcDbEntity
  8
Vorgabe
 62
     9
420
 12566463
100
AcDbVertex
100
AcDbPolyFaceMeshVertex
 10
120.0000076293945
 20
-27.25
 30
5.0001220703125
 70
   192
  0
VERTEX
  5
23C
330
212
100
AcDbEntity
  8
Vorgabe
 62
     9
420
 12566463
100
AcDbVertex
100
AcDbPolyFaceMeshVertex
 10
120.0000076293945
 20
-27.25
 30
15.0001220703125
 70
   192
  0
VERTEX
  5
23D
330
212
100
AcDbEntity
  8
Vorgabe
 62
     9
420
 12566463
100
AcDbVertex
100
AcDbPolyFaceMeshVertex
 10
118.0000076293945
 20
-29.25
 30
15.0001220703125
 70
   192
  0
VERTEX
  5
23E
330
212
100
AcDbEntity
  8
Vorgabe
 62
     9
420
 12566463
100
AcDbVertex
100
AcDbPolyFaceMeshVertex
 10
118.0000076293945
 20
-29.25
 30
5.0001220703125
 70
   192
  0
VERTEX
  5
23F
330
212
100
AcDbEntity
  8
Vorgabe
 62
     9
420
 12566463
100
AcDbVertex
100
AcDbPolyFaceMeshVertex
 10
119.9999923706055
 20
448.7499999999999
 30
15.0001220703125
 70
   192
  0
VERTEX
  5
240
330
212
100
AcDbEntity
  8
Vorgabe
 62
     9
420
 12566463
100
AcDbVertex
100
AcDbPolyFaceMeshVertex
 10
120.0000076293945
 20
-27.25
 30
15.0001220703125
 70
   192
  0
VERTEX
  5
241
330
212
100
AcDbEntity
  8
Vorgabe
 62
     9
420
 12566463
100
AcDbVertex
100
AcDbPolyFaceMeshVertex
 10
120.0000076293945
 20
-27.25
 30
5.0001220703125
 70
   192
  0
VERTEX
  5
242
330
212
100
AcDbEntity
  8
Vorgabe
 62
     9
420
 12566463
100
AcDbVertex
100
AcDbPolyFaceMeshVertex
 10
119.9999923706055
 20
448.7499999999999
 30
5.0001220703125
 70
   192
  0
VERTEX
  5
243
330
212
100
AcDbEntity
  8
Vorgabe
 62
     9
420
 12566463
100
AcDbVertex
100
AcDbPolyFaceMeshVertex
 10
-120.0000076293945
 20
448.7499999999999
 30
5.0001220703125
 70
   192
  0
VERTEX
  5
244
330
212
100
AcDbEntity
  8
Vorgabe
 62
     9
420
 12566463
100
AcDbVertex
100
AcDbPolyFaceMeshVertex
 10
-120.0000076293945
 20
448.7499999999999
 30
15.0001220703125
 70
   192
  0
VERTEX
  5
245
330
212
100
AcDbEntity
  8
Vorgabe
 62
     9
420
 12566463
100
AcDbVertex
100
AcDbPolyFaceMeshVertex
 10
-118.0000076293945
 20
450.75
 30
15.0001220703125
 70
   192
  0
VERTEX
  5
246
330
212
100
AcDbEntity
  8
Vorgabe
 62
     9
420
 12566463
100
AcDbVertex
100
AcDbPolyFaceMeshVertex
 10
-118.0000076293945
 20
450.75
 30
5.0001220703125
 70
   192
  0
VERTEX
  5
247
330
212
100
AcDbEntity
  8
Vorgabe
 62
     9
420
 12566463
100
AcDbVertex
100
AcDbPolyFaceMeshVertex
 10
-120.0000076293945
 20
448.7499999999999
 30
5.0001220703125
 70
   192
  0
VERTEX
  5
248
330
212
100
AcDbEntity
  8
Vorgabe
 62
     9
420
 12566463
100
AcDbVertex
100
AcDbPolyFaceMeshVertex
 10
-119.9999923706055
 20
-27.25
 30
5.0001220703125
 70
   192
  0
VERTEX
  5
249
330
212
100
AcDbEntity
  8
Vorgabe
 62
     9
420
 12566463
100
AcDbVertex
100
AcDbPolyFaceMeshVertex
 10
-119.9999923706055
 20
-27.25
 30
15.0001220703125
 70
   192
  0
VERTEX
  5
24A
330
212
100
AcDbEntity
  8
Vorgabe
 62
     9
420
 12566463
100
AcDbVertex
100
AcDbPolyFaceMeshVertex
 10
-120.0000076293945
 20
448.7499999999999
 30
15.0001220703125
 70
   192
  0
VERTEX
  5
24B
330
212
100
AcDbEntity
  8
Vorgabe
 62
     9
420
 12566463
100
AcDbVertex
100
AcDbPolyFaceMeshVertex
 10
117.9999923706054
 20
450.75
 30
5.0001220703125
 70
   192
  0
VERTEX
  5
24C
330
212
100
AcDbEntity
  8
Vorgabe
 62
     9
420
 12566463
100
AcDbVertex
100
AcDbPolyFaceMeshVertex
 10
117.9999923706054
 20
450.75
 30
15.0001220703125
 70
   192
  0
VERTEX
  5
24D
330
212
100
AcDbEntity
  8
Vorgabe
 62
     9
420
 12566463
100
AcDbVertex
100
AcDbPolyFaceMeshVertex
 10
119.9999923706055
 20
448.7499999999999
 30
15.0001220703125
 70
   192
  0
VERTEX
  5
24E
330
212
100
AcDbEntity
  8
Vorgabe
 62
     9
420
 12566463
100
AcDbVertex
100
AcDbPolyFaceMeshVertex
 10
119.9999923706055
 20
448.7499999999999
 30
5.0001220703125
 70
   192
  0
VERTEX
  5
24F
330
212
100
AcDbEntity
  8
Vorgabe
 62
     9
420
 12566463
100
AcDbVertex
100
AcDbPolyFaceMeshVertex
 10
-103.5000076293945
 20
443.4006347656249
 30
0.0001220703125
 70
   192
  0
VERTEX
  5
250
330
212
100
AcDbEntity
  8
Vorgabe
 62
     9
420
 12566463
100
AcDbVertex
100
AcDbPolyFaceMeshVertex
 10
-103.5000076293945
 20
443.4006347656249
 30
5.0001220703125
 70
   192
  0
VERTEX
  5
251
330
212
100
AcDbEntity
  8
Vorgabe
 62
     9
420
 12566463
100
AcDbVertex
100
AcDbPolyFaceMeshVertex
 10
-78.50000762939453
 20
443.4006347656249
 30
5.0001220703125
 70
   192
  0
VERTEX
  5
252
330
212
100
AcDbEntity
  8
Vorgabe
 62
     9
420
 12566463
100
AcDbVertex
100
AcDbPolyFaceMeshVertex
 10
-78.50000762939453
 20
443.4006347656249
 30
0.0001220703125
 70
   192
  0
VERTEX
  5
253
330
212
100
AcDbEntity
  8
Vorgabe
 62
     9
420
 12566463
100
AcDbVertex
100
AcDbPolyFaceMeshVertex
 10
-116.0000076293945
 20
421.75
 30
0.0001220703125
 70
   192
  0
VERTEX
  5
254
330
212
100
AcDbEntity
  8
Vorgabe
 62
     9
420
 12566463
100
AcDbVertex
100
AcDbPolyFaceMeshVertex
 10
-116.0000076293945
 20
421.75
 30
5.0001220703125
 70
   192
  0
VERTEX
  5
255
330
212
100
AcDbEntity
  8
Vorgabe
 62
     9
420
 12566463
100
AcDbVertex
100
AcDbPolyFaceMeshVertex
 10
-103.5000076293945
 20
443.4006347656249
 30
5.0001220703125
 70
   192
  0
VERTEX
  5
256
330
212
100
AcDbEntity
  8
Vorgabe
 62
     9
420
 12566463
100
AcDbVertex
100
AcDbPolyFaceMeshVertex
 10
-103.5000076293945
 20
443.4006347656249
 30
0.0001220703125
 70
   192
  0
VERTEX
  5
257
330
212
100
AcDbEntity
  8
Vorgabe
 62
     9
420
 12566463
100
AcDbVertex
100
AcDbPolyFaceMeshVertex
 10
-103.5000076293945
 20
400.0993652343749
 30
0.0001220703125
 70
   192
  0
VERTEX
  5
258
330
212
100
AcDbEntity
  8
Vorgabe
 62
     9
420
 12566463
100
AcDbVertex
100
AcDbPolyFaceMeshVertex
 10
-103.5000076293945
 20
400.0993652343749
 30
5.0001220703125
 70
   192
  0
VERTEX
  5
259
330
212
100
AcDbEntity
  8
Vorgabe
 62
     9
420
 12566463
100
AcDbVertex
100
AcDbPolyFaceMeshVertex
 10
-116.0000076293945
 20
421.75
 30
5.0001220703125
 70
   192
  0
VERTEX
  5
25A
330
212
100
AcDbEntity
  8
Vorgabe
 62
     9
420
 12566463
100
AcDbVertex
100
AcDbPolyFaceMeshVertex
 10
-116.0000076293945
 20
421.75
 30
0.0001220703125
 70
   192
  0
VERTEX
  5
25B
330
212
100
AcDbEntity
  8
Vorgabe
 62
     9
420
 12566463
100
AcDbVertex
100
AcDbPolyFaceMeshVertex
 10
-78.50000762939453
 20
400.0993652343749
 30
0.0001220703125
 70
   192
  0
VERTEX
  5
25C
330
212
100
AcDbEntity
  8
Vorgabe
 62
     9
420
 12566463
100
AcDbVertex
100
AcDbPolyFaceMeshVertex
 10
-78.50000762939453
 20
400.0993652343749
 30
5.0001220703125
 70
   192
  0
VERTEX
  5
25D
330
212
100
AcDbEntity
  8
Vorgabe
 62
     9
420
 12566463
100
AcDbVertex
100
AcDbPolyFaceMeshVertex
 10
-103.5000076293945
 20
400.0993652343749
 30
5.0001220703125
 70
   192
  0
VERTEX
  5
25E
330
212
100
AcDbEntity
  8
Vorgabe
 62
     9
420
 12566463
100
AcDbVertex
100
AcDbPolyFaceMeshVertex
 10
-103.5000076293945
 20
400.0993652343749
 30
0.0001220703125
 70
   192
  0
VERTEX
  5
25F
330
212
100
AcDbEntity
  8
Vorgabe
 62
     9
420
 12566463
100
AcDbVertex
100
AcDbPolyFaceMeshVertex
 10
-66.00000762939453
 20
421.75
 30
0.0001220703125
 70
   192
  0
VERTEX
  5
260
330
212
100
AcDbEntity
  8
Vorgabe
 62
     9
420
 12566463
100
AcDbVertex
100
AcDbPolyFaceMeshVertex
 10
-66.00000762939453
 20
421.75
 30
5.0001220703125
 70
   192
  0
VERTEX
  5
261
330
212
100
AcDbEntity
  8
Vorgabe
 62
     9
420
 12566463
100
AcDbVertex
100
AcDbPolyFaceMeshVertex
 10
-78.50000762939453
 20
400.0993652343749
 30
5.0001220703125
 70
   192
  0
VERTEX
  5
262
330
212
100
AcDbEntity
  8
Vorgabe
 62
     9
420
 12566463
100
AcDbVertex
100
AcDbPolyFaceMeshVertex
 10
-78.50000762939453
 20
400.0993652343749
 30
0.0001220703125
 70
   192
  0
VERTEX
  5
263
330
212
100
AcDbEntity
  8
Vorgabe
 62
     9
420
 12566463
100
AcDbVertex
100
AcDbPolyFaceMeshVertex
 10
-78.50000762939453
 20
443.4006347656249
 30
0.0001220703125
 70
   192
  0
VERTEX
  5
264
330
212
100
AcDbEntity
  8
Vorgabe
 62
     9
420
 12566463
100
AcDbVertex
100
AcDbPolyFaceMeshVertex
 10
-78.50000762939453
 20
443.4006347656249
 30
5.0001220703125
 70
   192
  0
VERTEX
  5
265
330
212
100
AcDbEntity
  8
Vorgabe
 62
     9
420
 12566463
100
AcDbVertex
100
AcDbPolyFaceMeshVertex
 10
-66.00000762939453
 20
421.75
 30
5.0001220703125
 70
   192
  0
VERTEX
  5
266
330
212
100
AcDbEntity
  8
Vorgabe
 62
     9
420
 12566463
100
AcDbVertex
100
AcDbPolyFaceMeshVertex
 10
-66.00000762939453
 20
421.75
 30
0.0001220703125
 70
   192
  0
VERTEX
  5
267
330
212
100
AcDbEntity
  8
Vorgabe
 62
     9
420
 12566463
100
AcDbVertex
100
AcDbPolyFaceMeshVertex
 10
-78.50000762939453
 20
400.0993652343749
 30
0.0001220703125
 70
   192
  0
VERTEX
  5
268
330
212
100
AcDbEntity
  8
Vorgabe
 62
     9
420
 12566463
100
AcDbVertex
100
AcDbPolyFaceMeshVertex
 10
-103.5000076293945
 20
400.0993652343749
 30
0.0001220703125
 70
   192
  0
VERTEX
  5
269
330
212
100
AcDbEntity
  8
Vorgabe
 62
     9
420
 12566463
100
AcDbVertex
100
AcDbPolyFaceMeshVertex
 10
-116.0000076293945
 20
421.75
 30
0.0001220703125
 70
   192
  0
VERTEX
  5
26A
330
212
100
AcDbEntity
  8
Vorgabe
 62
     9
420
 12566463
100
AcDbVertex
100
AcDbPolyFaceMeshVertex
 10
-103.5000076293945
 20
443.4006347656249
 30
0.0001220703125
 70
   192
  0
VERTEX
  5
26B
330
212
100
AcDbEntity
  8
Vorgabe
 62
     9
420
 12566463
100
AcDbVertex
100
AcDbPolyFaceMeshVertex
 10
-78.50000762939453
 20
443.4006347656249
 30
0.0001220703125
 70
   192
  0
VERTEX
  5
26C
330
212
100
AcDbEntity
  8
Vorgabe
 62
     9
420
 12566463
100
AcDbVertex
100
AcDbPolyFaceMeshVertex
 10
-66.00000762939453
 20
421.75
 30
0.0001220703125
 70
   192
  0
VERTEX
  5
26D
330
212
100
AcDbEntity
  8
Vorgabe
 62
     9
420
 12566463
100
AcDbVertex
100
AcDbPolyFaceMeshVertex
 10
78.50000762939453
 20
21.400634765625
 30
0.0001220703125
 70
   192
  0
VERTEX
  5
26E
330
212
100
AcDbEntity
  8
Vorgabe
 62
     9
420
 12566463
100
AcDbVertex
100
AcDbPolyFaceMeshVertex
 10
78.50000762939453
 20
21.400634765625
 30
5.0001220703125
 70
   192
  0
VERTEX
  5
26F
330
212
100
AcDbEntity
  8
Vorgabe
 62
     9
420
 12566463
100
AcDbVertex
100
AcDbPolyFaceMeshVertex
 10
103.5000076293945
 20
21.400634765625
 30
5.0001220703125
 70
   192
  0
VERTEX
  5
270
330
212
100
AcDbEntity
  8
Vorgabe
 62
     9
420
 12566463
100
AcDbVertex
100
AcDbPolyFaceMeshVertex
 10
103.5000076293945
 20
21.400634765625
 30
0.0001220703125
 70
   192
  0
VERTEX
  5
271
330
212
100
AcDbEntity
  8
Vorgabe
 62
     9
420
 12566463
100
AcDbVertex
100
AcDbPolyFaceMeshVertex
 10
66.00000762939453
 20
-0.25
 30
0.0001220703125
 70
   192
  0
VERTEX
  5
272
330
212
100
AcDbEntity
  8
Vorgabe
 62
     9
420
 12566463
100
AcDbVertex
100
AcDbPolyFaceMeshVertex
 10
66.00000762939453
 20
-0.25
 30
5.0001220703125
 70
   192
  0
VERTEX
  5
273
330
212
100
AcDbEntity
  8
Vorgabe
 62
     9
420
 12566463
100
AcDbVertex
100
AcDbPolyFaceMeshVertex
 10
78.50000762939453
 20
21.400634765625
 30
5.0001220703125
 70
   192
  0
VERTEX
  5
274
330
212
100
AcDbEntity
  8
Vorgabe
 62
     9
420
 12566463
100
AcDbVertex
100
AcDbPolyFaceMeshVertex
 10
78.50000762939453
 20
21.400634765625
 30
0.0001220703125
 70
   192
  0
VERTEX
  5
275
330
212
100
AcDbEntity
  8
Vorgabe
 62
     9
420
 12566463
100
AcDbVertex
100
AcDbPolyFaceMeshVertex
 10
78.50000762939453
 20
-21.900634765625
 30
0.0001220703125
 70
   192
  0
VERTEX
  5
276
330
212
100
AcDbEntity
  8
Vorgabe
 62
     9
420
 12566463
100
AcDbVertex
100
AcDbPolyFaceMeshVertex
 10
78.50000762939453
 20
-21.900634765625
 30
5.0001220703125
 70
   192
  0
VERTEX
  5
277
330
212
100
AcDbEntity
  8
Vorgabe
 62
     9
420
 12566463
100
AcDbVertex
100
AcDbPolyFaceMeshVertex
 10
66.00000762939453
 20
-0.25
 30
5.0001220703125
 70
   192
  0
VERTEX
  5
278
330
212
100
AcDbEntity
  8
Vorgabe
 62
     9
420
 12566463
100
AcDbVertex
100
AcDbPolyFaceMeshVertex
 10
66.00000762939453
 20
-0.25
 30
0.0001220703125
 70
   192
  0
VERTEX
  5
279
330
212
100
AcDbEntity
  8
Vorgabe
 62
     9
420
 12566463
100
AcDbVertex
100
AcDbPolyFaceMeshVertex
 10
103.5000076293945
 20
-21.900634765625
 30
0.0001220703125
 70
   192
  0
VERTEX
  5
27A
330
212
100
AcDbEntity
  8
Vorgabe
 62
     9
420
 12566463
100
AcDbVertex
100
AcDbPolyFaceMeshVertex
 10
103.5000076293945
 20
-21.900634765625
 30
5.0001220703125
 70
   192
  0
VERTEX
  5
27B
330
212
100
AcDbEntity
  8
Vorgabe
 62
     9
420
 12566463
100
AcDbVertex
100
AcDbPolyFaceMeshVertex
 10
78.50000762939453
 20
-21.900634765625
 30
5.0001220703125
 70
   192
  0
VERTEX
  5
27C
330
212
100
AcDbEntity
  8
Vorgabe
 62
     9
420
 12566463
100
AcDbVertex
100
AcDbPolyFaceMeshVertex
 10
78.50000762939453
 20
-21.900634765625
 30
0.0001220703125
 70
   192
  0
VERTEX
  5
27D
330
212
100
AcDbEntity
  8
Vorgabe
 62
     9
420
 12566463
100
AcDbVertex
100
AcDbPolyFaceMeshVertex
 10
116.0000076293945
 20
-0.25
 30
0.0001220703125
 70
   192
  0
VERTEX
  5
27E
330
212
100
AcDbEntity
  8
Vorgabe
 62
     9
420
 12566463
100
AcDbVertex
100
AcDbPolyFaceMeshVertex
 10
116.0000076293945
 20
-0.25
 30
5.0001220703125
 70
   192
  0
VERTEX
  5
27F
330
212
100
AcDbEntity
  8
Vorgabe
 62
     9
420
 12566463
100
AcDbVertex
100
AcDbPolyFaceMeshVertex
 10
103.5000076293945
 20
-21.900634765625
 30
5.0001220703125
 70
   192
  0
VERTEX
  5
280
330
212
100
AcDbEntity
  8
Vorgabe
 62
     9
420
 12566463
100
AcDbVertex
100
AcDbPolyFaceMeshVertex
 10
103.5000076293945
 20
-21.900634765625
 30
0.0001220703125
 70
   192
  0
VERTEX
  5
281
330
212
100
AcDbEntity
  8
Vorgabe
 62
     9
420
 12566463
100
AcDbVertex
100
AcDbPolyFaceMeshVertex
 10
103.5000076293945
 20
21.400634765625
 30
0.0001220703125
 70
   192
  0
VERTEX
  5
282
330
212
100
AcDbEntity
  8
Vorgabe
 62
     9
420
 12566463
100
AcDbVertex
100
AcDbPolyFaceMeshVertex
 10
103.5000076293945
 20
21.400634765625
 30
5.0001220703125
 70
   192
  0
VERTEX
  5
283
330
212
100
AcDbEntity
  8
Vorgabe
 62
     9
420
 12566463
100
AcDbVertex
100
AcDbPolyFaceMeshVertex
 10
116.0000076293945
 20
-0.25
 30
5.0001220703125
 70
   192
  0
VERTEX
  5
284
330
212
100
AcDbEntity
  8
Vorgabe
 62
     9
420
 12566463
100
AcDbVertex
100
AcDbPolyFaceMeshVertex
 10
116.0000076293945
 20
-0.25
 30
0.0001220703125
 70
   192
  0
VERTEX
  5
285
330
212
100
AcDbEntity
  8
Vorgabe
 62
     9
420
 12566463
100
AcDbVertex
100
AcDbPolyFaceMeshVertex
 10
116.0000076293945
 20
-0.25
 30
0.0001220703125
 70
   192
  0
VERTEX
  5
286
330
212
100
AcDbEntity
  8
Vorgabe
 62
     9
420
 12566463
100
AcDbVertex
100
AcDbPolyFaceMeshVertex
 10
103.5000076293945
 20
-21.900634765625
 30
0.0001220703125
 70
   192
  0
VERTEX
  5
287
330
212
100
AcDbEntity
  8
Vorgabe
 62
     9
420
 12566463
100
AcDbVertex
100
AcDbPolyFaceMeshVertex
 10
66.00000762939453
 20
-0.25
 30
0.0001220703125
 70
   192
  0
VERTEX
  5
288
330
212
100
AcDbEntity
  8
Vorgabe
 62
     9
420
 12566463
100
AcDbVertex
100
AcDbPolyFaceMeshVertex
 10
78.50000762939453
 20
21.400634765625
 30
0.0001220703125
 70
   192
  0
VERTEX
  5
289
330
212
100
AcDbEntity
  8
Vorgabe
 62
     9
420
 12566463
100
AcDbVertex
100
AcDbPolyFaceMeshVertex
 10
78.50000762939453
 20
-21.900634765625
 30
0.0001220703125
 70
   192
  0
VERTEX
  5
28A
330
212
100
AcDbEntity
  8
Vorgabe
 62
     9
420
 12566463
100
AcDbVertex
100
AcDbPolyFaceMeshVertex
 10
103.5000076293945
 20
21.400634765625
 30
0.0001220703125
 70
   192
  0
VERTEX
  5
28B
330
212
100
AcDbEntity
  8
Vorgabe
 62
     9
420
 12566463
100
AcDbVertex
100
AcDbPolyFaceMeshVertex
 10
78.49999237060547
 20
443.4006347656249
 30
0.0001220703125
 70
   192
  0
VERTEX
  5
28C
330
212
100
AcDbEntity
  8
Vorgabe
 62
     9
420
 12566463
100
AcDbVertex
100
AcDbPolyFaceMeshVertex
 10
78.49999237060547
 20
443.4006347656249
 30
5.0001220703125
 70
   192
  0
VERTEX
  5
28D
330
212
100
AcDbEntity
  8
Vorgabe
 62
     9
420
 12566463
100
AcDbVertex
100
AcDbPolyFaceMeshVertex
 10
103.4999923706054
 20
443.4006347656249
 30
5.0001220703125
 70
   192
  0
VERTEX
  5
28E
330
212
100
AcDbEntity
  8
Vorgabe
 62
     9
420
 12566463
100
AcDbVertex
100
AcDbPolyFaceMeshVertex
 10
103.4999923706054
 20
443.4006347656249
 30
0.0001220703125
 70
   192
  0
VERTEX
  5
28F
330
212
100
AcDbEntity
  8
Vorgabe
 62
     9
420
 12566463
100
AcDbVertex
100
AcDbPolyFaceMeshVertex
 10
65.99999237060547
 20
421.75
 30
0.0001220703125
 70
   192
  0
VERTEX
  5
290
330
212
100
AcDbEntity
  8
Vorgabe
 62
     9
420
 12566463
100
AcDbVertex
100
AcDbPolyFaceMeshVertex
 10
65.99999237060547
 20
421.75
 30
5.0001220703125
 70
   192
  0
VERTEX
  5
291
330
212
100
AcDbEntity
  8
Vorgabe
 62
     9
420
 12566463
100
AcDbVertex
100
AcDbPolyFaceMeshVertex
 10
78.49999237060547
 20
443.4006347656249
 30
5.0001220703125
 70
   192
  0
VERTEX
  5
292
330
212
100
AcDbEntity
  8
Vorgabe
 62
     9
420
 12566463
100
AcDbVertex
100
AcDbPolyFaceMeshVertex
 10
78.49999237060547
 20
443.4006347656249
 30
0.0001220703125
 70
   192
  0
VERTEX
  5
293
330
212
100
AcDbEntity
  8
Vorgabe
 62
     9
420
 12566463
100
AcDbVertex
100
AcDbPolyFaceMeshVertex
 10
78.49999237060547
 20
400.0993652343749
 30
0.0001220703125
 70
   192
  0
VERTEX
  5
294
330
212
100
AcDbEntity
  8
Vorgabe
 62
     9
420
 12566463
100
AcDbVertex
100
AcDbPolyFaceMeshVertex
 10
78.49999237060547
 20
400.0993652343749
 30
5.0001220703125
 70
   192
  0
VERTEX
  5
295
330
212
100
AcDbEntity
  8
Vorgabe
 62
     9
420
 12566463
100
AcDbVertex
100
AcDbPolyFaceMeshVertex
 10
65.99999237060547
 20
421.75
 30
5.0001220703125
 70
   192
  0
VERTEX
  5
296
330
212
100
AcDbEntity
  8
Vorgabe
 62
     9
420
 12566463
100
AcDbVertex
100
AcDbPolyFaceMeshVertex
 10
65.99999237060547
 20
421.75
 30
0.0001220703125
 70
   192
  0
VERTEX
  5
297
330
212
100
AcDbEntity
  8
Vorgabe
 62
     9
420
 12566463
100
AcDbVertex
100
AcDbPolyFaceMeshVertex
 10
103.4999923706054
 20
400.0993652343749
 30
0.0001220703125
 70
   192
  0
VERTEX
  5
298
330
212
100
AcDbEntity
  8
Vorgabe
 62
     9
420
 12566463
100
AcDbVertex
100
AcDbPolyFaceMeshVertex
 10
103.4999923706054
 20
400.0993652343749
 30
5.0001220703125
 70
   192
  0
VERTEX
  5
299
330
212
100
AcDbEntity
  8
Vorgabe
 62
     9
420
 12566463
100
AcDbVertex
100
AcDbPolyFaceMeshVertex
 10
78.49999237060547
 20
400.0993652343749
 30
5.0001220703125
 70
   192
  0
VERTEX
  5
29A
330
212
100
AcDbEntity
  8
Vorgabe
 62
     9
420
 12566463
100
AcDbVertex
100
AcDbPolyFaceMeshVertex
 10
78.49999237060547
 20
400.0993652343749
 30
0.0001220703125
 70
   192
  0
VERTEX
  5
29B
330
212
100
AcDbEntity
  8
Vorgabe
 62
     9
420
 12566463
100
AcDbVertex
100
AcDbPolyFaceMeshVertex
 10
115.9999923706054
 20
421.75
 30
0.0001220703125
 70
   192
  0
VERTEX
  5
29C
330
212
100
AcDbEntity
  8
Vorgabe
 62
     9
420
 12566463
100
AcDbVertex
100
AcDbPolyFaceMeshVertex
 10
115.9999923706054
 20
421.75
 30
5.0001220703125
 70
   192
  0
VERTEX
  5
29D
330
212
100
AcDbEntity
  8
Vorgabe
 62
     9
420
 12566463
100
AcDbVertex
100
AcDbPolyFaceMeshVertex
 10
103.4999923706054
 20
400.0993652343749
 30
5.0001220703125
 70
   192
  0
VERTEX
  5
29E
330
212
100
AcDbEntity
  8
Vorgabe
 62
     9
420
 12566463
100
AcDbVertex
100
AcDbPolyFaceMeshVertex
 10
103.4999923706054
 20
400.0993652343749
 30
0.0001220703125
 70
   192
  0
VERTEX
  5
29F
330
212
100
AcDbEntity
  8
Vorgabe
 62
     9
420
 12566463
100
AcDbVertex
100
AcDbPolyFaceMeshVertex
 10
103.4999923706054
 20
443.4006347656249
 30
0.0001220703125
 70
   192
  0
VERTEX
  5
2A0
330
212
100
AcDbEntity
  8
Vorgabe
 62
     9
420
 12566463
100
AcDbVertex
100
AcDbPolyFaceMeshVertex
 10
103.4999923706054
 20
443.4006347656249
 30
5.0001220703125
 70
   192
  0
VERTEX
  5
2A1
330
212
100
AcDbEntity
  8
Vorgabe
 62
     9
420
 12566463
100
AcDbVertex
100
AcDbPolyFaceMeshVertex
 10
115.9999923706054
 20
421.75
 30
5.0001220703125
 70
   192
  0
VERTEX
  5
2A2
330
212
100
AcDbEntity
  8
Vorgabe
 62
     9
420
 12566463
100
AcDbVertex
100
AcDbPolyFaceMeshVertex
 10
115.9999923706054
 20
421.75
 30
0.0001220703125
 70
   192
  0
VERTEX
  5
2A3
330
212
100
AcDbEntity
  8
Vorgabe
 62
     9
420
 12566463
100
AcDbVertex
100
AcDbPolyFaceMeshVertex
 10
103.4999923706054
 20
400.0993652343749
 30
0.0001220703125
 70
   192
  0
VERTEX
  5
2A4
330
212
100
AcDbEntity
  8
Vorgabe
 62
     9
420
 12566463
100
AcDbVertex
100
AcDbPolyFaceMeshVertex
 10
78.49999237060547
 20
400.0993652343749
 30
0.0001220703125
 70
   192
  0
VERTEX
  5
2A5
330
212
100
AcDbEntity
  8
Vorgabe
 62
     9
420
 12566463
100
AcDbVertex
100
AcDbPolyFaceMeshVertex
 10
65.99999237060547
 20
421.75
 30
0.0001220703125
 70
   192
  0
VERTEX
  5
2A6
330
212
100
AcDbEntity
  8
Vorgabe
 62
     9
420
 12566463
100
AcDbVertex
100
AcDbPolyFaceMeshVertex
 10
78.49999237060547
 20
443.4006347656249
 30
0.0001220703125
 70
   192
  0
VERTEX
  5
2A7
330
212
100
AcDbEntity
  8
Vorgabe
 62
     9
420
 12566463
100
AcDbVertex
100
AcDbPolyFaceMeshVertex
 10
103.4999923706054
 20
443.4006347656249
 30
0.0001220703125
 70
   192
  0
VERTEX
  5
2A8
330
212
100
AcDbEntity
  8
Vorgabe
 62
     9
420
 12566463
100
AcDbVertex
100
AcDbPolyFaceMeshVertex
 10
115.9999923706054
 20
421.75
 30
0.0001220703125
 70
   192
  0
VERTEX
  5
2A9
330
212
100
AcDbEntity
  8
Vorgabe
 62
     9
420
 12566463
100
AcDbVertex
100
AcDbPolyFaceMeshVertex
 10
-103.4999923706054
 20
21.400634765625
 30
0.0001220703125
 70
   192
  0
VERTEX
  5
2AA
330
212
100
AcDbEntity
  8
Vorgabe
 62
     9
420
 12566463
100
AcDbVertex
100
AcDbPolyFaceMeshVertex
 10
-103.4999923706054
 20
21.400634765625
 30
5.0001220703125
 70
   192
  0
VERTEX
  5
2AB
330
212
100
AcDbEntity
  8
Vorgabe
 62
     9
420
 12566463
100
AcDbVertex
100
AcDbPolyFaceMeshVertex
 10
-78.49999237060547
 20
21.400634765625
 30
5.0001220703125
 70
   192
  0
VERTEX
  5
2AC
330
212
100
AcDbEntity
  8
Vorgabe
 62
     9
420
 12566463
100
AcDbVertex
100
AcDbPolyFaceMeshVertex
 10
-78.49999237060547
 20
21.400634765625
 30
0.0001220703125
 70
   192
  0
VERTEX
  5
2AD
330
212
100
AcDbEntity
  8
Vorgabe
 62
     9
420
 12566463
100
AcDbVertex
100
AcDbPolyFaceMeshVertex
 10
-115.9999923706054
 20
-0.25
 30
0.0001220703125
 70
   192
  0
VERTEX
  5
2AE
330
212
100
AcDbEntity
  8
Vorgabe
 62
     9
420
 12566463
100
AcDbVertex
100
AcDbPolyFaceMeshVertex
 10
-115.9999923706054
 20
-0.25
 30
5.0001220703125
 70
   192
  0
VERTEX
  5
2AF
330
212
100
AcDbEntity
  8
Vorgabe
 62
     9
420
 12566463
100
AcDbVertex
100
AcDbPolyFaceMeshVertex
 10
-103.4999923706054
 20
21.400634765625
 30
5.0001220703125
 70
   192
  0
VERTEX
  5
2B0
330
212
100
AcDbEntity
  8
Vorgabe
 62
     9
420
 12566463
100
AcDbVertex
100
AcDbPolyFaceMeshVertex
 10
-103.4999923706054
 20
21.400634765625
 30
0.0001220703125
 70
   192
  0
VERTEX
  5
2B1
330
212
100
AcDbEntity
  8
Vorgabe
 62
     9
420
 12566463
100
AcDbVertex
100
AcDbPolyFaceMeshVertex
 10
-103.4999923706054
 20
-21.900634765625
 30
0.0001220703125
 70
   192
  0
VERTEX
  5
2B2
330
212
100
AcDbEntity
  8
Vorgabe
 62
     9
420
 12566463
100
AcDbVertex
100
AcDbPolyFaceMeshVertex
 10
-103.4999923706054
 20
-21.900634765625
 30
5.0001220703125
 70
   192
  0
VERTEX
  5
2B3
330
212
100
AcDbEntity
  8
Vorgabe
 62
     9
420
 12566463
100
AcDbVertex
100
AcDbPolyFaceMeshVertex
 10
-115.9999923706054
 20
-0.25
 30
5.0001220703125
 70
   192
  0
VERTEX
  5
2B4
330
212
100
AcDbEntity
  8
Vorgabe
 62
     9
420
 12566463
100
AcDbVertex
100
AcDbPolyFaceMeshVertex
 10
-115.9999923706054
 20
-0.25
 30
0.0001220703125
 70
   192
  0
VERTEX
  5
2B5
330
212
100
AcDbEntity
  8
Vorgabe
 62
     9
420
 12566463
100
AcDbVertex
100
AcDbPolyFaceMeshVertex
 10
-78.49999237060547
 20
-21.900634765625
 30
0.0001220703125
 70
   192
  0
VERTEX
  5
2B6
330
212
100
AcDbEntity
  8
Vorgabe
 62
     9
420
 12566463
100
AcDbVertex
100
AcDbPolyFaceMeshVertex
 10
-78.49999237060547
 20
-21.900634765625
 30
5.0001220703125
 70
   192
  0
VERTEX
  5
2B7
330
212
100
AcDbEntity
  8
Vorgabe
 62
     9
420
 12566463
100
AcDbVertex
100
AcDbPolyFaceMeshVertex
 10
-103.4999923706054
 20
-21.900634765625
 30
5.0001220703125
 70
   192
  0
VERTEX
  5
2B8
330
212
100
AcDbEntity
  8
Vorgabe
 62
     9
420
 12566463
100
AcDbVertex
100
AcDbPolyFaceMeshVertex
 10
-103.4999923706054
 20
-21.900634765625
 30
0.0001220703125
 70
   192
  0
VERTEX
  5
2B9
330
212
100
AcDbEntity
  8
Vorgabe
 62
     9
420
 12566463
100
AcDbVertex
100
AcDbPolyFaceMeshVertex
 10
-65.99999237060547
 20
-0.25
 30
0.0001220703125
 70
   192
  0
VERTEX
  5
2BA
330
212
100
AcDbEntity
  8
Vorgabe
 62
     9
420
 12566463
100
AcDbVertex
100
AcDbPolyFaceMeshVertex
 10
-65.99999237060547
 20
-0.25
 30
5.0001220703125
 70
   192
  0
VERTEX
  5
2BB
330
212
100
AcDbEntity
  8
Vorgabe
 62
     9
420
 12566463
100
AcDbVertex
100
AcDbPolyFaceMeshVertex
 10
-78.49999237060547
 20
-21.900634765625
 30
5.0001220703125
 70
   192
  0
VERTEX
  5
2BC
330
212
100
AcDbEntity
  8
Vorgabe
 62
     9
420
 12566463
100
AcDbVertex
100
AcDbPolyFaceMeshVertex
 10
-78.49999237060547
 20
-21.900634765625
 30
0.0001220703125
 70
   192
  0
VERTEX
  5
2BD
330
212
100
AcDbEntity
  8
Vorgabe
 62
     9
420
 12566463
100
AcDbVertex
100
AcDbPolyFaceMeshVertex
 10
-78.49999237060547
 20
21.400634765625
 30
0.0001220703125
 70
   192
  0
VERTEX
  5
2BE
330
212
100
AcDbEntity
  8
Vorgabe
 62
     9
420
 12566463
100
AcDbVertex
100
AcDbPolyFaceMeshVertex
 10
-78.49999237060547
 20
21.400634765625
 30
5.0001220703125
 70
   192
  0
VERTEX
  5
2BF
330
212
100
AcDbEntity
  8
Vorgabe
 62
     9
420
 12566463
100
AcDbVertex
100
AcDbPolyFaceMeshVertex
 10
-65.99999237060547
 20
-0.25
 30
5.0001220703125
 70
   192
  0
VERTEX
  5
2C0
330
212
100
AcDbEntity
  8
Vorgabe
 62
     9
420
 12566463
100
AcDbVertex
100
AcDbPolyFaceMeshVertex
 10
-65.99999237060547
 20
-0.25
 30
0.0001220703125
 70
   192
  0
VERTEX
  5
2C1
330
212
100
AcDbEntity
  8
Vorgabe
 62
     9
420
 12566463
100
AcDbVertex
100
AcDbPolyFaceMeshVertex
 10
-78.49999237060547
 20
-21.900634765625
 30
0.0001220703125
 70
   192
  0
VERTEX
  5
2C2
330
212
100
AcDbEntity
  8
Vorgabe
 62
     9
420
 12566463
100
AcDbVertex
100
AcDbPolyFaceMeshVertex
 10
-103.4999923706054
 20
-21.900634765625
 30
0.0001220703125
 70
   192
  0
VERTEX
  5
2C3
330
212
100
AcDbEntity
  8
Vorgabe
 62
     9
420
 12566463
100
AcDbVertex
100
AcDbPolyFaceMeshVertex
 10
-115.9999923706054
 20
-0.25
 30
0.0001220703125
 70
   192
  0
VERTEX
  5
2C4
330
212
100
AcDbEntity
  8
Vorgabe
 62
     9
420
 12566463
100
AcDbVertex
100
AcDbPolyFaceMeshVertex
 10
-103.4999923706054
 20
21.400634765625
 30
0.0001220703125
 70
   192
  0
VERTEX
  5
2C5
330
212
100
AcDbEntity
  8
Vorgabe
 62
     9
420
 12566463
100
AcDbVertex
100
AcDbPolyFaceMeshVertex
 10
-78.49999237060547
 20
21.400634765625
 30
0.0001220703125
 70
   192
  0
VERTEX
  5
2C6
330
212
100
AcDbEntity
  8
Vorgabe
 62
     9
420
 12566463
100
AcDbVertex
100
AcDbPolyFaceMeshVertex
 10
-65.99999237060547
 20
-0.25
 30
0.0001220703125
 70
   192
  0
VERTEX
  5
2C7
330
212
100
AcDbEntity
  8
Vorgabe
 62
     9
420
 12566463
100
AcDbVertex
100
AcDbPolyFaceMeshVertex
 10
117.9999923706054
 20
450.75
 30
5.0001220703125
 70
   192
  0
VERTEX
  5
2C8
330
212
100
AcDbEntity
  8
Vorgabe
 62
     9
420
 12566463
100
AcDbVertex
100
AcDbPolyFaceMeshVertex
 10
-118.0000076293945
 20
450.75
 30
5.0001220703125
 70
   192
  0
VERTEX
  5
2C9
330
212
100
AcDbEntity
  8
Vorgabe
 62
     9
420
 12566463
100
AcDbVertex
100
AcDbPolyFaceMeshVertex
 10
-118.0000076293945
 20
450.75
 30
15.0001220703125
 70
   192
  0
VERTEX
  5
2CA
330
212
100
AcDbEntity
  8
Vorgabe
 62
     9
420
 12566463
100
AcDbVertex
100
AcDbPolyFaceMeshVertex
 10
117.9999923706054
 20
450.75
 30
15.0001220703125
 70
   192
  0
VERTEX
  5
2CB
330
212
100
AcDbEntity
  8
Vorgabe
 62
     9
420
 12566463
100
AcDbVertex
100
AcDbPolyFaceMeshVertex
 10
-119.9999923706055
 20
-27.25
 30
15.0001220703125
 70
   192
  0
VERTEX
  5
2CC
330
212
100
AcDbEntity
  8
Vorgabe
 62
     9
420
 12566463
100
AcDbVertex
100
AcDbPolyFaceMeshVertex
 10
-117.9999923706054
 20
-29.25
 30
15.0001220703125
 70
   192
  0
VERTEX
  5
2CD
330
212
100
AcDbEntity
  8
Vorgabe
 62
     9
420
 12566463
100
AcDbVertex
100
AcDbPolyFaceMeshVertex
 10
117.9999923706054
 20
450.75
 30
15.0001220703125
 70
   192
  0
VERTEX
  5
2CE
330
212
100
AcDbEntity
  8
Vorgabe
 62
     9
420
 12566463
100
AcDbVertex
100
AcDbPolyFaceMeshVertex
 10
-118.0000076293945
 20
450.75
 30
15.0001220703125
 70
   192
  0
VERTEX
  5
2CF
330
212
100
AcDbEntity
  8
Vorgabe
 62
     9
420
 12566463
100
AcDbVertex
100
AcDbPolyFaceMeshVertex
 10
-120.0000076293945
 20
448.7499999999999
 30
15.0001220703125
 70
   192
  0
VERTEX
  5
2D0
330
212
100
AcDbEntity
  8
Vorgabe
 62
     9
420
 12566463
100
AcDbVertex
100
AcDbPolyFaceMeshVertex
 10
119.9999923706055
 20
448.7499999999999
 30
15.0001220703125
 70
   192
  0
VERTEX
  5
2D1
330
212
100
AcDbEntity
  8
Vorgabe
 62
     9
420
 12566463
100
AcDbVertex
100
AcDbPolyFaceMeshVertex
 10
120.0000076293945
 20
-27.25
 30
15.0001220703125
 70
   192
  0
VERTEX
  5
2D2
330
212
100
AcDbEntity
  8
Vorgabe
 62
     9
420
 12566463
100
AcDbVertex
100
AcDbPolyFaceMeshVertex
 10
118.0000076293945
 20
-29.25
 30
15.0001220703125
 70
   192
  0
VERTEX
  5
2D3
330
212
100
AcDbEntity
  8
Vorgabe
 62
     9
420
 12566463
100
AcDbFaceRecord
 10
0.0
 20
0.0
 30
0.0
 70
   128
 71
     3
 72
     1
 73
     2
  0
VERTEX
  5
2D4
330
212
100
AcDbEntity
  8
Vorgabe
 62
     9
420
 12566463
100
AcDbFaceRecord
 10
0.0
 20
0.0
 30
0.0
 70
   128
 71
     1
 72
     3
 73
     4
  0
VERTEX
  5
2D5
330
212
100
AcDbEntity
  8
Vorgabe
 62
     9
420
 12566463
100
AcDbFaceRecord
 10
0.0
 20
0.0
 30
0.0
 70
   128
 71
     7
 72
     5
 73
     6
  0
VERTEX
  5
2D6
330
212
100
AcDbEntity
  8
Vorgabe
 62
     9
420
 12566463
100
AcDbFaceRecord
 10
0.0
 20
0.0
 30
0.0
 70
   128
 71
     5
 72
     7
 73
     8
  0
VERTEX
  5
2D7
330
212
100
AcDbEntity
  8
Vorgabe
 62
     9
420
 12566463
100
AcDbFaceRecord
 10
0.0
 20
0.0
 30
0.0
 70
   128
 71
    12
 72
     9
 73
    23
  0
VERTEX
  5
2D8
330
212
100
AcDbEntity
  8
Vorgabe
 62
     9
420
 12566463
100
AcDbFaceRecord
 10
0.0
 20
0.0
 30
0.0
 70
   128
 71
    11
 72
    10
 73
    28
  0
VERTEX
  5
2D9
330
212
100
AcDbEntity
  8
Vorgabe
 62
     9
420
 12566463
100
AcDbFaceRecord
 10
0.0
 20
0.0
 30
0.0
 70
   128
 71
    15
 72
    10
 73
    11
  0
VERTEX
  5
2DA
330
212
100
AcDbEntity
  8
Vorgabe
 62
     9
420
 12566463
100
AcDbFaceRecord
 10
0.0
 20
0.0
 30
0.0
 70
   128
 71
    13
 72
    12
 73
    21
  0
VERTEX
  5
2DB
330
212
100
AcDbEntity
  8
Vorgabe
 62
     9
420
 12566463
100
AcDbFaceRecord
 10
0.0
 20
0.0
 30
0.0
 70
   128
 71
    14
 72
    12
 73
    13
  0
VERTEX
  5
2DC
330
212
100
AcDbEntity
  8
Vorgabe
 62
     9
420
 12566463
100
AcDbFaceRecord
 10
0.0
 20
0.0
 30
0.0
 70
   128
 71
    34
 72
    12
 73
    14
  0
VERTEX
  5
2DD
330
212
100
AcDbEntity
  8
Vorgabe
 62
     9
420
 12566463
100
AcDbFaceRecord
 10
0.0
 20
0.0
 30
0.0
 70
   128
 71
    37
 72
    10
 73
    15
  0
VERTEX
  5
2DE
330
212
100
AcDbEntity
  8
Vorgabe
 62
     9
420
 12566463
100
AcDbFaceRecord
 10
0.0
 20
0.0
 30
0.0
 70
   128
 71
    19
 72
    10
 73
    16
  0
VERTEX
  5
2DF
330
212
100
AcDbEntity
  8
Vorgabe
 62
     9
420
 12566463
100
AcDbFaceRecord
 10
0.0
 20
0.0
 30
0.0
 70
   128
 71
    19
 72
    17
 73
    10
  0
VERTEX
  5
2E0
330
212
100
AcDbEntity
  8
Vorgabe
 62
     9
420
 12566463
100
AcDbFaceRecord
 10
0.0
 20
0.0
 30
0.0
 70
   128
 71
    19
 72
    18
 73
    17
  0
VERTEX
  5
2E1
330
212
100
AcDbEntity
  8
Vorgabe
 62
     9
420
 12566463
100
AcDbFaceRecord
 10
0.0
 20
0.0
 30
0.0
 70
   128
 71
    32
 72
    18
 73
    19
  0
VERTEX
  5
2E2
330
212
100
AcDbEntity
  8
Vorgabe
 62
     9
420
 12566463
100
AcDbFaceRecord
 10
0.0
 20
0.0
 30
0.0
 70
   128
 71
    21
 72
    20
 73
    13
  0
VERTEX
  5
2E3
330
212
100
AcDbEntity
  8
Vorgabe
 62
     9
420
 12566463
100
AcDbFaceRecord
 10
0.0
 20
0.0
 30
0.0
 70
   128
 71
    18
 72
    20
 73
    21
  0
VERTEX
  5
2E4
330
212
100
AcDbEntity
  8
Vorgabe
 62
     9
420
 12566463
100
AcDbFaceRecord
 10
0.0
 20
0.0
 30
0.0
 70
   128
 71
    32
 72
    20
 73
    18
  0
VERTEX
  5
2E5
330
212
100
AcDbEntity
  8
Vorgabe
 62
     9
420
 12566463
100
AcDbFaceRecord
 10
0.0
 20
0.0
 30
0.0
 70
   128
 71
    32
 72
    22
 73
    20
  0
VERTEX
  5
2E6
330
212
100
AcDbEntity
  8
Vorgabe
 62
     9
420
 12566463
100
AcDbFaceRecord
 10
0.0
 20
0.0
 30
0.0
 70
   128
 71
    26
 72
    12
 73
    23
  0
VERTEX
  5
2E7
330
212
100
AcDbEntity
  8
Vorgabe
 62
     9
420
 12566463
100
AcDbFaceRecord
 10
0.0
 20
0.0
 30
0.0
 70
   128
 71
    26
 72
    24
 73
    12
  0
VERTEX
  5
2E8
330
212
100
AcDbEntity
  8
Vorgabe
 62
     9
420
 12566463
100
AcDbFaceRecord
 10
0.0
 20
0.0
 30
0.0
 70
   128
 71
    26
 72
    25
 73
    24
  0
VERTEX
  5
2E9
330
212
100
AcDbEntity
  8
Vorgabe
 62
     9
420
 12566463
100
AcDbFaceRecord
 10
0.0
 20
0.0
 30
0.0
 70
   128
 71
    30
 72
    25
 73
    26
  0
VERTEX
  5
2EA
330
212
100
AcDbEntity
  8
Vorgabe
 62
     9
420
 12566463
100
AcDbFaceRecord
 10
0.0
 20
0.0
 30
0.0
 70
   128
 71
    28
 72
    27
 73
    11
  0
VERTEX
  5
2EB
330
212
100
AcDbEntity
  8
Vorgabe
 62
     9
420
 12566463
100
AcDbFaceRecord
 10
0.0
 20
0.0
 30
0.0
 70
   128
 71
    25
 72
    27
 73
    28
  0
VERTEX
  5
2EC
330
212
100
AcDbEntity
  8
Vorgabe
 62
     9
420
 12566463
100
AcDbFaceRecord
 10
0.0
 20
0.0
 30
0.0
 70
   128
 71
    30
 72
    27
 73
    25
  0
VERTEX
  5
2ED
330
212
100
AcDbEntity
  8
Vorgabe
 62
     9
420
 12566463
100
AcDbFaceRecord
 10
0.0
 20
0.0
 30
0.0
 70
   128
 71
    30
 72
    29
 73
    27
  0
VERTEX
  5
2EE
330
212
100
AcDbEntity
  8
Vorgabe
 62
     9
420
 12566463
100
AcDbFaceRecord
 10
0.0
 20
0.0
 30
0.0
 70
   128
 71
    36
 72
    29
 73
    30
  0
VERTEX
  5
2EF
330
212
100
AcDbEntity
  8
Vorgabe
 62
     9
420
 12566463
100
AcDbFaceRecord
 10
0.0
 20
0.0
 30
0.0
 70
   128
 71
    36
 72
    31
 73
    29
  0
VERTEX
  5
2F0
330
212
100
AcDbEntity
  8
Vorgabe
 62
     9
420
 12566463
100
AcDbFaceRecord
 10
0.0
 20
0.0
 30
0.0
 70
   128
 71
    35
 72
    22
 73
    32
  0
VERTEX
  5
2F1
330
212
100
AcDbEntity
  8
Vorgabe
 62
     9
420
 12566463
100
AcDbFaceRecord
 10
0.0
 20
0.0
 30
0.0
 70
   128
 71
    35
 72
    33
 73
    22
  0
VERTEX
  5
2F2
330
212
100
AcDbEntity
  8
Vorgabe
 62
     9
420
 12566463
100
AcDbFaceRecord
 10
0.0
 20
0.0
 30
0.0
 70
   128
 71
    35
 72
    34
 73
    33
  0
VERTEX
  5
2F3
330
212
100
AcDbEntity
  8
Vorgabe
 62
     9
420
 12566463
100
AcDbFaceRecord
 10
0.0
 20
0.0
 30
0.0
 70
   128
 71
    39
 72
    34
 73
    35
  0
VERTEX
  5
2F4
330
212
100
AcDbEntity
  8
Vorgabe
 62
     9
420
 12566463
100
AcDbFaceRecord
 10
0.0
 20
0.0
 30
0.0
 70
   128
 71
    40
 72
    31
 73
    36
  0
VERTEX
  5
2F5
330
212
100
AcDbEntity
  8
Vorgabe
 62
     9
420
 12566463
100
AcDbFaceRecord
 10
0.0
 20
0.0
 30
0.0
 70
   128
 71
    40
 72
    37
 73
    31
  0
VERTEX
  5
2F6
330
212
100
AcDbEntity
  8
Vorgabe
 62
     9
420
 12566463
100
AcDbFaceRecord
 10
0.0
 20
0.0
 30
0.0
 70
   128
 71
    10
 72
    38
 73
    16
  0
VERTEX
  5
2F7
330
212
100
AcDbEntity
  8
Vorgabe
 62
     9
420
 12566463
100
AcDbFaceRecord
 10
0.0
 20
0.0
 30
0.0
 70
   128
 71
    37
 72
    38
 73
    10
  0
VERTEX
  5
2F8
330
212
100
AcDbEntity
  8
Vorgabe
 62
     9
420
 12566463
100
AcDbFaceRecord
 10
0.0
 20
0.0
 30
0.0
 70
   128
 71
    37
 72
    39
 73
    38
  0
VERTEX
  5
2F9
330
212
100
AcDbEntity
  8
Vorgabe
 62
     9
420
 12566463
100
AcDbFaceRecord
 10
0.0
 20
0.0
 30
0.0
 70
   128
 71
    40
 72
    39
 73
    37
  0
VERTEX
  5
2FA
330
212
100
AcDbEntity
  8
Vorgabe
 62
     9
420
 12566463
100
AcDbFaceRecord
 10
0.0
 20
0.0
 30
0.0
 70
   128
 71
    40
 72
    34
 73
    39
  0
VERTEX
  5
2FB
330
212
100
AcDbEntity
  8
Vorgabe
 62
     9
420
 12566463
100
AcDbFaceRecord
 10
0.0
 20
0.0
 30
0.0
 70
   128
 71
     9
 72
    34
 73
    40
  0
VERTEX
  5
2FC
330
212
100
AcDbEntity
  8
Vorgabe
 62
     9
420
 12566463
100
AcDbFaceRecord
 10
0.0
 20
0.0
 30
0.0
 70
   128
 71
     9
 72
    12
 73
    34
  0
VERTEX
  5
2FD
330
212
100
AcDbEntity
  8
Vorgabe
 62
     9
420
 12566463
100
AcDbFaceRecord
 10
0.0
 20
0.0
 30
0.0
 70
   128
 71
    43
 72
    41
 73
    42
  0
VERTEX
  5
2FE
330
212
100
AcDbEntity
  8
Vorgabe
 62
     9
420
 12566463
100
AcDbFaceRecord
 10
0.0
 20
0.0
 30
0.0
 70
   128
 71
    41
 72
    43
 73
    44
  0
VERTEX
  5
2FF
330
212
100
AcDbEntity
  8
Vorgabe
 62
     9
420
 12566463
100
AcDbFaceRecord
 10
0.0
 20
0.0
 30
0.0
 70
   128
 71
    47
 72
    45
 73
    46
  0
VERTEX
  5
300
330
212
100
AcDbEntity
  8
Vorgabe
 62
     9
420
 12566463
100
AcDbFaceRecord
 10
0.0
 20
0.0
 30
0.0
 70
   128
 71
    45
 72
    47
 73
    48
  0
VERTEX
  5
301
330
212
100
AcDbEntity
  8
Vorgabe
 62
     9
420
 12566463
100
AcDbFaceRecord
 10
0.0
 20
0.0
 30
0.0
 70
   128
 71
    51
 72
    49
 73
    50
  0
VERTEX
  5
302
330
212
100
AcDbEntity
  8
Vorgabe
 62
     9
420
 12566463
100
AcDbFaceRecord
 10
0.0
 20
0.0
 30
0.0
 70
   128
 71
    49
 72
    51
 73
    52
  0
VERTEX
  5
303
330
212
100
AcDbEntity
  8
Vorgabe
 62
     9
420
 12566463
100
AcDbFaceRecord
 10
0.0
 20
0.0
 30
0.0
 70
   128
 71
    55
 72
    53
 73
    54
  0
VERTEX
  5
304
330
212
100
AcDbEntity
  8
Vorgabe
 62
     9
420
 12566463
100
AcDbFaceRecord
 10
0.0
 20
0.0
 30
0.0
 70
   128
 71
    53
 72
    55
 73
    56
  0
VERTEX
  5
305
330
212
100
AcDbEntity
  8
Vorgabe
 62
     9
420
 12566463
100
AcDbFaceRecord
 10
0.0
 20
0.0
 30
0.0
 70
   128
 71
    59
 72
    57
 73
    58
  0
VERTEX
  5
306
330
212
100
AcDbEntity
  8
Vorgabe
 62
     9
420
 12566463
100
AcDbFaceRecord
 10
0.0
 20
0.0
 30
0.0
 70
   128
 71
    57
 72
    59
 73
    60
  0
VERTEX
  5
307
330
212
100
AcDbEntity
  8
Vorgabe
 62
     9
420
 12566463
100
AcDbFaceRecord
 10
0.0
 20
0.0
 30
0.0
 70
   128
 71
    63
 72
    61
 73
    62
  0
VERTEX
  5
308
330
212
100
AcDbEntity
  8
Vorgabe
 62
     9
420
 12566463
100
AcDbFaceRecord
 10
0.0
 20
0.0
 30
0.0
 70
   128
 71
    61
 72
    63
 73
    64
  0
VERTEX
  5
309
330
212
100
AcDbEntity
  8
Vorgabe
 62
     9
420
 12566463
100
AcDbFaceRecord
 10
0.0
 20
0.0
 30
0.0
 70
   128
 71
    67
 72
    65
 73
    66
  0
VERTEX
  5
30A
330
212
100
AcDbEntity
  8
Vorgabe
 62
     9
420
 12566463
100
AcDbFaceRecord
 10
0.0
 20
0.0
 30
0.0
 70
   128
 71
    65
 72
    67
 73
    68
  0
VERTEX
  5
30B
330
212
100
AcDbEntity
  8
Vorgabe
 62
     9
420
 12566463
100
AcDbFaceRecord
 10
0.0
 20
0.0
 30
0.0
 70
   128
 71
    71
 72
    69
 73
    70
  0
VERTEX
  5
30C
330
212
100
AcDbEntity
  8
Vorgabe
 62
     9
420
 12566463
100
AcDbFaceRecord
 10
0.0
 20
0.0
 30
0.0
 70
   128
 71
    69
 72
    71
 73
    72
  0
VERTEX
  5
30D
330
212
100
AcDbEntity
  8
Vorgabe
 62
     9
420
 12566463
100
AcDbFaceRecord
 10
0.0
 20
0.0
 30
0.0
 70
   128
 71
    75
 72
    73
 73
    74
  0
VERTEX
  5
30E
330
212
100
AcDbEntity
  8
Vorgabe
 62
     9
420
 12566463
100
AcDbFaceRecord
 10
0.0
 20
0.0
 30
0.0
 70
   128
 71
    73
 72
    75
 73
    76
  0
VERTEX
  5
30F
330
212
100
AcDbEntity
  8
Vorgabe
 62
     9
420
 12566463
100
AcDbFaceRecord
 10
0.0
 20
0.0
 30
0.0
 70
   128
 71
    79
 72
    77
 73
    78
  0
VERTEX
  5
310
330
212
100
AcDbEntity
  8
Vorgabe
 62
     9
420
 12566463
100
AcDbFaceRecord
 10
0.0
 20
0.0
 30
0.0
 70
   128
 71
    77
 72
    79
 73
    80
  0
VERTEX
  5
311
330
212
100
AcDbEntity
  8
Vorgabe
 62
     9
420
 12566463
100
AcDbFaceRecord
 10
0.0
 20
0.0
 30
0.0
 70
   128
 71
    83
 72
    81
 73
    82
  0
VERTEX
  5
312
330
212
100
AcDbEntity
  8
Vorgabe
 62
     9
420
 12566463
100
AcDbFaceRecord
 10
0.0
 20
0.0
 30
0.0
 70
   128
 71
    81
 72
    83
 73
    84
  0
VERTEX
  5
313
330
212
100
AcDbEntity
  8
Vorgabe
 62
     9
420
 12566463
100
AcDbFaceRecord
 10
0.0
 20
0.0
 30
0.0
 70
   128
 71
    87
 72
    85
 73
    86
  0
VERTEX
  5
314
330
212
100
AcDbEntity
  8
Vorgabe
 62
     9
420
 12566463
100
AcDbFaceRecord
 10
0.0
 20
0.0
 30
0.0
 70
   128
 71
    89
 72
    87
 73
    88
  0
VERTEX
  5
315
330
212
100
AcDbEntity
  8
Vorgabe
 62
     9
420
 12566463
100
AcDbFaceRecord
 10
0.0
 20
0.0
 30
0.0
 70
   128
 71
    90
 72
    87
 73
    89
  0
VERTEX
  5
316
330
212
100
AcDbEntity
  8
Vorgabe
 62
     9
420
 12566463
100
AcDbFaceRecord
 10
0.0
 20
0.0
 30
0.0
 70
   128
 71
    85
 72
    87
 73
    90
  0
VERTEX
  5
317
330
212
100
AcDbEntity
  8
Vorgabe
 62
     9
420
 12566463
100
AcDbFaceRecord
 10
0.0
 20
0.0
 30
0.0
 70
   128
 71
    93
 72
    91
 73
    92
  0
VERTEX
  5
318
330
212
100
AcDbEntity
  8
Vorgabe
 62
     9
420
 12566463
100
AcDbFaceRecord
 10
0.0
 20
0.0
 30
0.0
 70
   128
 71
    91
 72
    93
 73
    94
  0
VERTEX
  5
319
330
212
100
AcDbEntity
  8
Vorgabe
 62
     9
420
 12566463
100
AcDbFaceRecord
 10
0.0
 20
0.0
 30
0.0
 70
   128
 71
    97
 72
    95
 73
    96
  0
VERTEX
  5
31A
330
212
100
AcDbEntity
  8
Vorgabe
 62
     9
420
 12566463
100
AcDbFaceRecord
 10
0.0
 20
0.0
 30
0.0
 70
   128
 71
    95
 72
    97
 73
    98
  0
VERTEX
  5
31B
330
212
100
AcDbEntity
  8
Vorgabe
 62
     9
420
 12566463
100
AcDbFaceRecord
 10
0.0
 20
0.0
 30
0.0
 70
   128
 71
   101
 72
    99
 73
   100
  0
VERTEX
  5
31C
330
212
100
AcDbEntity
  8
Vorgabe
 62
     9
420
 12566463
100
AcDbFaceRecord
 10
0.0
 20
0.0
 30
0.0
 70
   128
 71
    99
 72
   101
 73
   102
  0
VERTEX
  5
31D
330
212
100
AcDbEntity
  8
Vorgabe
 62
     9
420
 12566463
100
AcDbFaceRecord
 10
0.0
 20
0.0
 30
0.0
 70
   128
 71
   105
 72
   103
 73
   104
  0
VERTEX
  5
31E
330
212
100
AcDbEntity
  8
Vorgabe
 62
     9
420
 12566463
100
AcDbFaceRecord
 10
0.0
 20
0.0
 30
0.0
 70
   128
 71
   103
 72
   105
 73
   106
  0
VERTEX
  5
31F
330
212
100
AcDbEntity
  8
Vorgabe
 62
     9
420
 12566463
100
AcDbFaceRecord
 10
0.0
 20
0.0
 30
0.0
 70
   128
 71
   109
 72
   107
 73
   108
  0
VERTEX
  5
320
330
212
100
AcDbEntity
  8
Vorgabe
 62
     9
420
 12566463
100
AcDbFaceRecord
 10
0.0
 20
0.0
 30
0.0
 70
   128
 71
   107
 72
   109
 73
   110
  0
VERTEX
  5
321
330
212
100
AcDbEntity
  8
Vorgabe
 62
     9
420
 12566463
100
AcDbFaceRecord
 10
0.0
 20
0.0
 30
0.0
 70
   128
 71
   113
 72
   111
 73
   112
  0
VERTEX
  5
322
330
212
100
AcDbEntity
  8
Vorgabe
 62
     9
420
 12566463
100
AcDbFaceRecord
 10
0.0
 20
0.0
 30
0.0
 70
   128
 71
   111
 72
   113
 73
   114
  0
VERTEX
  5
323
330
212
100
AcDbEntity
  8
Vorgabe
 62
     9
420
 12566463
100
AcDbFaceRecord
 10
0.0
 20
0.0
 30
0.0
 70
   128
 71
   119
 72
   115
 73
   116
  0
VERTEX
  5
324
330
212
100
AcDbEntity
  8
Vorgabe
 62
     9
420
 12566463
100
AcDbFaceRecord
 10
0.0
 20
0.0
 30
0.0
 70
   128
 71
   120
 72
   117
 73
   118
  0
VERTEX
  5
325
330
212
100
AcDbEntity
  8
Vorgabe
 62
     9
420
 12566463
100
AcDbFaceRecord
 10
0.0
 20
0.0
 30
0.0
 70
   128
 71
   120
 72
   119
 73
   117
  0
VERTEX
  5
326
330
212
100
AcDbEntity
  8
Vorgabe
 62
     9
420
 12566463
100
AcDbFaceRecord
 10
0.0
 20
0.0
 30
0.0
 70
   128
 71
   115
 72
   119
 73
   120
  0
VERTEX
  5
327
330
212
100
AcDbEntity
  8
Vorgabe
 62
     9
420
 12566463
100
AcDbFaceRecord
 10
0.0
 20
0.0
 30
0.0
 70
   128
 71
   123
 72
   121
 73
   122
  0
VERTEX
  5
328
330
212
100
AcDbEntity
  8
Vorgabe
 62
     9
420
 12566463
100
AcDbFaceRecord
 10
0.0
 20
0.0
 30
0.0
 70
   128
 71
   121
 72
   123
 73
   124
  0
VERTEX
  5
329
330
212
100
AcDbEntity
  8
Vorgabe
 62
     9
420
 12566463
100
AcDbFaceRecord
 10
0.0
 20
0.0
 30
0.0
 70
   128
 71
   127
 72
   125
 73
   126
  0
VERTEX
  5
32A
330
212
100
AcDbEntity
  8
Vorgabe
 62
     9
420
 12566463
100
AcDbFaceRecord
 10
0.0
 20
0.0
 30
0.0
 70
   128
 71
   125
 72
   127
 73
   128
  0
VERTEX
  5
32B
330
212
100
AcDbEntity
  8
Vorgabe
 62
     9
420
 12566463
100
AcDbFaceRecord
 10
0.0
 20
0.0
 30
0.0
 70
   128
 71
   131
 72
   129
 73
   130
  0
VERTEX
  5
32C
330
212
100
AcDbEntity
  8
Vorgabe
 62
     9
420
 12566463
100
AcDbFaceRecord
 10
0.0
 20
0.0
 30
0.0
 70
   128
 71
   129
 72
   131
 73
   132
  0
VERTEX
  5
32D
330
212
100
AcDbEntity
  8
Vorgabe
 62
     9
420
 12566463
100
AcDbFaceRecord
 10
0.0
 20
0.0
 30
0.0
 70
   128
 71
   135
 72
   133
 73
   134
  0
VERTEX
  5
32E
330
212
100
AcDbEntity
  8
Vorgabe
 62
     9
420
 12566463
100
AcDbFaceRecord
 10
0.0
 20
0.0
 30
0.0
 70
   128
 71
   133
 72
   135
 73
   136
  0
VERTEX
  5
32F
330
212
100
AcDbEntity
  8
Vorgabe
 62
     9
420
 12566463
100
AcDbFaceRecord
 10
0.0
 20
0.0
 30
0.0
 70
   128
 71
   139
 72
   137
 73
   138
  0
VERTEX
  5
330
330
212
100
AcDbEntity
  8
Vorgabe
 62
     9
420
 12566463
100
AcDbFaceRecord
 10
0.0
 20
0.0
 30
0.0
 70
   128
 71
   137
 72
   139
 73
   140
  0
VERTEX
  5
331
330
212
100
AcDbEntity
  8
Vorgabe
 62
     9
420
 12566463
100
AcDbFaceRecord
 10
0.0
 20
0.0
 30
0.0
 70
   128
 71
   143
 72
   141
 73
   142
  0
VERTEX
  5
332
330
212
100
AcDbEntity
  8
Vorgabe
 62
     9
420
 12566463
100
AcDbFaceRecord
 10
0.0
 20
0.0
 30
0.0
 70
   128
 71
   141
 72
   143
 73
   144
  0
VERTEX
  5
333
330
212
100
AcDbEntity
  8
Vorgabe
 62
     9
420
 12566463
100
AcDbFaceRecord
 10
0.0
 20
0.0
 30
0.0
 70
   128
 71
   147
 72
   145
 73
   146
  0
VERTEX
  5
334
330
212
100
AcDbEntity
  8
Vorgabe
 62
     9
420
 12566463
100
AcDbFaceRecord
 10
0.0
 20
0.0
 30
0.0
 70
   128
 71
   149
 72
   147
 73
   148
  0
VERTEX
  5
335
330
212
100
AcDbEntity
  8
Vorgabe
 62
     9
420
 12566463
100
AcDbFaceRecord
 10
0.0
 20
0.0
 30
0.0
 70
   128
 71
   150
 72
   147
 73
   149
  0
VERTEX
  5
336
330
212
100
AcDbEntity
  8
Vorgabe
 62
     9
420
 12566463
100
AcDbFaceRecord
 10
0.0
 20
0.0
 30
0.0
 70
   128
 71
   145
 72
   147
 73
   150
  0
VERTEX
  5
337
330
212
100
AcDbEntity
  8
Vorgabe
 62
     9
420
 12566463
100
AcDbFaceRecord
 10
0.0
 20
0.0
 30
0.0
 70
   128
 71
   153
 72
   151
 73
   152
  0
VERTEX
  5
338
330
212
100
AcDbEntity
  8
Vorgabe
 62
     9
420
 12566463
100
AcDbFaceRecord
 10
0.0
 20
0.0
 30
0.0
 70
   128
 71
   151
 72
   153
 73
   154
  0
VERTEX
  5
339
330
212
100
AcDbEntity
  8
Vorgabe
 62
     9
420
 12566463
100
AcDbFaceRecord
 10
0.0
 20
0.0
 30
0.0
 70
   128
 71
   157
 72
   155
 73
   156
  0
VERTEX
  5
33A
330
212
100
AcDbEntity
  8
Vorgabe
 62
     9
420
 12566463
100
AcDbFaceRecord
 10
0.0
 20
0.0
 30
0.0
 70
   128
 71
   155
 72
   157
 73
   158
  0
VERTEX
  5
33B
330
212
100
AcDbEntity
  8
Vorgabe
 62
     9
420
 12566463
100
AcDbFaceRecord
 10
0.0
 20
0.0
 30
0.0
 70
   128
 71
   161
 72
   159
 73
   160
  0
VERTEX
  5
33C
330
212
100
AcDbEntity
  8
Vorgabe
 62
     9
420
 12566463
100
AcDbFaceRecord
 10
0.0
 20
0.0
 30
0.0
 70
   128
 71
   159
 72
   161
 73
   162
  0
VERTEX
  5
33D
330
212
100
AcDbEntity
  8
Vorgabe
 62
     9
420
 12566463
100
AcDbFaceRecord
 10
0.0
 20
0.0
 30
0.0
 70
   128
 71
   165
 72
   163
 73
   164
  0
VERTEX
  5
33E
330
212
100
AcDbEntity
  8
Vorgabe
 62
     9
420
 12566463
100
AcDbFaceRecord
 10
0.0
 20
0.0
 30
0.0
 70
   128
 71
   163
 72
   165
 73
   166
  0
VERTEX
  5
33F
330
212
100
AcDbEntity
  8
Vorgabe
 62
     9
420
 12566463
100
AcDbFaceRecord
 10
0.0
 20
0.0
 30
0.0
 70
   128
 71
   169
 72
   167
 73
   168
  0
VERTEX
  5
340
330
212
100
AcDbEntity
  8
Vorgabe
 62
     9
420
 12566463
100
AcDbFaceRecord
 10
0.0
 20
0.0
 30
0.0
 70
   128
 71
   167
 72
   169
 73
   170
  0
VERTEX
  5
341
330
212
100
AcDbEntity
  8
Vorgabe
 62
     9
420
 12566463
100
AcDbFaceRecord
 10
0.0
 20
0.0
 30
0.0
 70
   128
 71
   173
 72
   171
 73
   172
  0
VERTEX
  5
342
330
212
100
AcDbEntity
  8
Vorgabe
 62
     9
420
 12566463
100
AcDbFaceRecord
 10
0.0
 20
0.0
 30
0.0
 70
   128
 71
   171
 72
   173
 73
   174
  0
VERTEX
  5
343
330
212
100
AcDbEntity
  8
Vorgabe
 62
     9
420
 12566463
100
AcDbFaceRecord
 10
0.0
 20
0.0
 30
0.0
 70
   128
 71
   177
 72
   175
 73
   176
  0
VERTEX
  5
344
330
212
100
AcDbEntity
  8
Vorgabe
 62
     9
420
 12566463
100
AcDbFaceRecord
 10
0.0
 20
0.0
 30
0.0
 70
   128
 71
   179
 72
   177
 73
   178
  0
VERTEX
  5
345
330
212
100
AcDbEntity
  8
Vorgabe
 62
     9
420
 12566463
100
AcDbFaceRecord
 10
0.0
 20
0.0
 30
0.0
 70
   128
 71
   180
 72
   177
 73
   179
  0
VERTEX
  5
346
330
212
100
AcDbEntity
  8
Vorgabe
 62
     9
420
 12566463
100
AcDbFaceRecord
 10
0.0
 20
0.0
 30
0.0
 70
   128
 71
   175
 72
   177
 73
   180
  0
VERTEX
  5
347
330
212
100
AcDbEntity
  8
Vorgabe
 62
     9
420
 12566463
100
AcDbFaceRecord
 10
0.0
 20
0.0
 30
0.0
 70
   128
 71
   183
 72
   181
 73
   182
  0
VERTEX
  5
348
330
212
100
AcDbEntity
  8
Vorgabe
 62
     9
420
 12566463
100
AcDbFaceRecord
 10
0.0
 20
0.0
 30
0.0
 70
   128
 71
   181
 72
   183
 73
   184
  0
VERTEX
  5
349
330
212
100
AcDbEntity
  8
Vorgabe
 62
     9
420
 12566463
100
AcDbFaceRecord
 10
0.0
 20
0.0
 30
0.0
 70
   128
 71
   192
 72
   185
 73
   186
  0
VERTEX
  5
34A
330
212
100
AcDbEntity
  8
Vorgabe
 62
     9
420
 12566463
100
AcDbFaceRecord
 10
0.0
 20
0.0
 30
0.0
 70
   128
 71
   189
 72
   187
 73
   188
  0
VERTEX
  5
34B
330
212
100
AcDbEntity
  8
Vorgabe
 62
     9
420
 12566463
100
AcDbFaceRecord
 10
0.0
 20
0.0
 30
0.0
 70
   128
 71
   185
 72
   187
 73
   189
  0
VERTEX
  5
34C
330
212
100
AcDbEntity
  8
Vorgabe
 62
     9
420
 12566463
100
AcDbFaceRecord
 10
0.0
 20
0.0
 30
0.0
 70
   128
 71
   185
 72
   190
 73
   187
  0
VERTEX
  5
34D
330
212
100
AcDbEntity
  8
Vorgabe
 62
     9
420
 12566463
100
AcDbFaceRecord
 10
0.0
 20
0.0
 30
0.0
 70
   128
 71
   185
 72
   191
 73
   190
  0
VERTEX
  5
34E
330
212
100
AcDbEntity
  8
Vorgabe
 62
     9
420
 12566463
100
AcDbFaceRecord
 10
0.0
 20
0.0
 30
0.0
 70
   128
 71
   185
 72
   192
 73
   191
  0
SEQEND
  5
34F
330
212
100
AcDbEntity
  8
Vorgabe
 62
     9
420
 12566463
  0
POLYLINE
  5
350
102
{ACAD_REACTORS
330
3A0
330
39E
102
}
330
1F
100
AcDbEntity
  8
Vorgabe
 62
     9
420
 12566463
100
AcDbPolyFaceMesh
 66
     1
 10
0.0
 20
0.0
 30
0.0
 70
    64
 71
    48
 72
    28
  0
VERTEX
  5
351
330
350
100
AcDbEntity
  8
Vorgabe
 62
     9
420
 12566463
100
AcDbVertex
100
AcDbPolyFaceMeshVertex
 10
32.39999389648438
 20
-18.2500114440918
 30
15.0001220703125
 70
   192
  0
VERTEX
  5
352
330
350
100
AcDbEntity
  8
Vorgabe
 62
     9
420
 12566463
100
AcDbVertex
100
AcDbPolyFaceMeshVertex
 10
32.39999389648438
 20
-18.2500114440918
 30
2161.5
 70
   192
  0
VERTEX
  5
353
330
350
100
AcDbEntity
  8
Vorgabe
 62
     9
420
 12566463
100
AcDbVertex
100
AcDbPolyFaceMeshVertex
 10
31.39999389648437
 20
-19.25000953674316
 30
2161.5
 70
   192
  0
VERTEX
  5
354
330
350
100
AcDbEntity
  8
Vorgabe
 62
     9
420
 12566463
100
AcDbVertex
100
AcDbPolyFaceMeshVertex
 10
31.39999389648437
 20
-19.25000953674316
 30
15.0001220703125
 70
   192
  0
VERTEX
  5
355
330
350
100
AcDbEntity
  8
Vorgabe
 62
     9
420
 12566463
100
AcDbVertex
100
AcDbPolyFaceMeshVertex
 10
32.40000915527344
 20
18.2499885559082
 30
2161.5
 70
   192
  0
VERTEX
  5
356
330
350
100
AcDbEntity
  8
Vorgabe
 62
     9
420
 12566463
100
AcDbVertex
100
AcDbPolyFaceMeshVertex
 10
32.39999389648438
 20
-18.2500114440918
 30
2161.5
 70
   192
  0
VERTEX
  5
357
330
350
100
AcDbEntity
  8
Vorgabe
 62
     9
420
 12566463
100
AcDbVertex
100
AcDbPolyFaceMeshVertex
 10
32.39999389648438
 20
-18.2500114440918
 30
15.0001220703125
 70
   192
  0
VERTEX
  5
358
330
350
100
AcDbEntity
  8
Vorgabe
 62
     9
420
 12566463
100
AcDbVertex
100
AcDbPolyFaceMeshVertex
 10
32.40000915527344
 20
18.2499885559082
 30
15.0001220703125
 70
   192
  0
VERTEX
  5
359
330
350
100
AcDbEntity
  8
Vorgabe
 62
     9
420
 12566463
100
AcDbVertex
100
AcDbPolyFaceMeshVertex
 10
-32.40000915527344
 20
-18.2499885559082
 30
15.0001220703125
 70
   192
  0
VERTEX
  5
35A
330
350
100
AcDbEntity
  8
Vorgabe
 62
     9
420
 12566463
100
AcDbVertex
100
AcDbPolyFaceMeshVertex
 10
-32.39999389648438
 20
18.2500114440918
 30
15.0001220703125
 70
   192
  0
VERTEX
  5
35B
330
350
100
AcDbEntity
  8
Vorgabe
 62
     9
420
 12566463
100
AcDbVertex
100
AcDbPolyFaceMeshVertex
 10
-31.39999389648437
 20
19.25000953674316
 30
15.0001220703125
 70
   192
  0
VERTEX
  5
35C
330
350
100
AcDbEntity
  8
Vorgabe
 62
     9
420
 12566463
100
AcDbVertex
100
AcDbPolyFaceMeshVertex
 10
31.40000534057617
 20
19.24999046325683
 30
15.0001220703125
 70
   192
  0
VERTEX
  5
35D
330
350
100
AcDbEntity
  8
Vorgabe
 62
     9
420
 12566463
100
AcDbVertex
100
AcDbPolyFaceMeshVertex
 10
32.40000915527344
 20
18.2499885559082
 30
15.0001220703125
 70
   192
  0
VERTEX
  5
35E
330
350
100
AcDbEntity
  8
Vorgabe
 62
     9
420
 12566463
100
AcDbVertex
100
AcDbPolyFaceMeshVertex
 10
32.39999389648438
 20
-18.2500114440918
 30
15.0001220703125
 70
   192
  0
VERTEX
  5
35F
330
350
100
AcDbEntity
  8
Vorgabe
 62
     9
420
 12566463
100
AcDbVertex
100
AcDbPolyFaceMeshVertex
 10
31.39999389648437
 20
-19.25000953674316
 30
15.0001220703125
 70
   192
  0
VERTEX
  5
360
330
350
100
AcDbEntity
  8
Vorgabe
 62
     9
420
 12566463
100
AcDbVertex
100
AcDbPolyFaceMeshVertex
 10
-31.40000534057617
 20
-19.24999046325683
 30
15.0001220703125
 70
   192
  0
VERTEX
  5
361
330
350
100
AcDbEntity
  8
Vorgabe
 62
     9
420
 12566463
100
AcDbVertex
100
AcDbPolyFaceMeshVertex
 10
31.40000534057617
 20
19.24999046325683
 30
15.0001220703125
 70
   192
  0
VERTEX
  5
362
330
350
100
AcDbEntity
  8
Vorgabe
 62
     9
420
 12566463
100
AcDbVertex
100
AcDbPolyFaceMeshVertex
 10
31.40000534057617
 20
19.24999046325683
 30
2161.5
 70
   192
  0
VERTEX
  5
363
330
350
100
AcDbEntity
  8
Vorgabe
 62
     9
420
 12566463
100
AcDbVertex
100
AcDbPolyFaceMeshVertex
 10
32.40000915527344
 20
18.2499885559082
 30
2161.5
 70
   192
  0
VERTEX
  5
364
330
350
100
AcDbEntity
  8
Vorgabe
 62
     9
420
 12566463
100
AcDbVertex
100
AcDbPolyFaceMeshVertex
 10
32.40000915527344
 20
18.2499885559082
 30
15.0001220703125
 70
   192
  0
VERTEX
  5
365
330
350
100
AcDbEntity
  8
Vorgabe
 62
     9
420
 12566463
100
AcDbVertex
100
AcDbPolyFaceMeshVertex
 10
-31.39999389648437
 20
19.25000953674316
 30
2161.5
 70
   192
  0
VERTEX
  5
366
330
350
100
AcDbEntity
  8
Vorgabe
 62
     9
420
 12566463
100
AcDbVertex
100
AcDbPolyFaceMeshVertex
 10
31.40000534057617
 20
19.24999046325683
 30
2161.5
 70
   192
  0
VERTEX
  5
367
330
350
100
AcDbEntity
  8
Vorgabe
 62
     9
420
 12566463
100
AcDbVertex
100
AcDbPolyFaceMeshVertex
 10
31.40000534057617
 20
19.24999046325683
 30
15.0001220703125
 70
   192
  0
VERTEX
  5
368
330
350
100
AcDbEntity
  8
Vorgabe
 62
     9
420
 12566463
100
AcDbVertex
100
AcDbPolyFaceMeshVertex
 10
-31.39999389648437
 20
19.25000953674316
 30
15.0001220703125
 70
   192
  0
VERTEX
  5
369
330
350
100
AcDbEntity
  8
Vorgabe
 62
     9
420
 12566463
100
AcDbVertex
100
AcDbPolyFaceMeshVertex
 10
-31.40000534057617
 20
-19.24999046325683
 30
15.0001220703125
 70
   192
  0
VERTEX
  5
36A
330
350
100
AcDbEntity
  8
Vorgabe
 62
     9
420
 12566463
100
AcDbVertex
100
AcDbPolyFaceMeshVertex
 10
-31.40000534057617
 20
-19.24999046325683
 30
2161.5
 70
   192
  0
VERTEX
  5
36B
330
350
100
AcDbEntity
  8
Vorgabe
 62
     9
420
 12566463
100
AcDbVertex
100
AcDbPolyFaceMeshVertex
 10
-32.40000915527344
 20
-18.2499885559082
 30
2161.5
 70
   192
  0
VERTEX
  5
36C
330
350
100
AcDbEntity
  8
Vorgabe
 62
     9
420
 12566463
100
AcDbVertex
100
AcDbPolyFaceMeshVertex
 10
-32.40000915527344
 20
-18.2499885559082
 30
15.0001220703125
 70
   192
  0
VERTEX
  5
36D
330
350
100
AcDbEntity
  8
Vorgabe
 62
     9
420
 12566463
100
AcDbVertex
100
AcDbPolyFaceMeshVertex
 10
-31.40000534057617
 20
-19.24999046325683
 30
15.0001220703125
 70
   192
  0
VERTEX
  5
36E
330
350
100
AcDbEntity
  8
Vorgabe
 62
     9
420
 12566463
100
AcDbVertex
100
AcDbPolyFaceMeshVertex
 10
31.39999389648437
 20
-19.25000953674316
 30
15.0001220703125
 70
   192
  0
VERTEX
  5
36F
330
350
100
AcDbEntity
  8
Vorgabe
 62
     9
420
 12566463
100
AcDbVertex
100
AcDbPolyFaceMeshVertex
 10
31.39999389648437
 20
-19.25000953674316
 30
2161.5
 70
   192
  0
VERTEX
  5
370
330
350
100
AcDbEntity
  8
Vorgabe
 62
     9
420
 12566463
100
AcDbVertex
100
AcDbPolyFaceMeshVertex
 10
-31.40000534057617
 20
-19.24999046325683
 30
2161.5
 70
   192
  0
VERTEX
  5
371
330
350
100
AcDbEntity
  8
Vorgabe
 62
     9
420
 12566463
100
AcDbVertex
100
AcDbPolyFaceMeshVertex
 10
-32.39999389648438
 20
18.2500114440918
 30
15.0001220703125
 70
   192
  0
VERTEX
  5
372
330
350
100
AcDbEntity
  8
Vorgabe
 62
     9
420
 12566463
100
AcDbVertex
100
AcDbPolyFaceMeshVertex
 10
-32.39999389648438
 20
18.2500114440918
 30
2161.5
 70
   192
  0
VERTEX
  5
373
330
350
100
AcDbEntity
  8
Vorgabe
 62
     9
420
 12566463
100
AcDbVertex
100
AcDbPolyFaceMeshVertex
 10
-31.39999389648437
 20
19.25000953674316
 30
2161.5
 70
   192
  0
VERTEX
  5
374
330
350
100
AcDbEntity
  8
Vorgabe
 62
     9
420
 12566463
100
AcDbVertex
100
AcDbPolyFaceMeshVertex
 10
-31.39999389648437
 20
19.25000953674316
 30
15.0001220703125
 70
   192
  0
VERTEX
  5
375
330
350
100
AcDbEntity
  8
Vorgabe
 62
     9
420
 12566463
100
AcDbVertex
100
AcDbPolyFaceMeshVertex
 10
-32.39999389648438
 20
18.2500114440918
 30
15.0001220703125
 70
   192
  0
VERTEX
  5
376
330
350
100
AcDbEntity
  8
Vorgabe
 62
     9
420
 12566463
100
AcDbVertex
100
AcDbPolyFaceMeshVertex
 10
-32.40000915527344
 20
-18.2499885559082
 30
15.0001220703125
 70
   192
  0
VERTEX
  5
377
330
350
100
AcDbEntity
  8
Vorgabe
 62
     9
420
 12566463
100
AcDbVertex
100
AcDbPolyFaceMeshVertex
 10
-32.40000915527344
 20
-18.2499885559082
 30
2161.5
 70
   192
  0
VERTEX
  5
378
330
350
100
AcDbEntity
  8
Vorgabe
 62
     9
420
 12566463
100
AcDbVertex
100
AcDbPolyFaceMeshVertex
 10
-32.39999389648438
 20
18.2500114440918
 30
2161.5
 70
   192
  0
VERTEX
  5
379
330
350
100
AcDbEntity
  8
Vorgabe
 62
     9
420
 12566463
100
AcDbVertex
100
AcDbPolyFaceMeshVertex
 10
32.39999389648438
 20
-18.2500114440918
 30
2161.5
 70
   192
  0
VERTEX
  5
37A
330
350
100
AcDbEntity
  8
Vorgabe
 62
     9
420
 12566463
100
AcDbVertex
100
AcDbPolyFaceMeshVertex
 10
32.40000915527344
 20
18.2499885559082
 30
2161.5
 70
   192
  0
VERTEX
  5
37B
330
350
100
AcDbEntity
  8
Vorgabe
 62
     9
420
 12566463
100
AcDbVertex
100
AcDbPolyFaceMeshVertex
 10
-32.40000915527344
 20
-18.2499885559082
 30
2161.5
 70
   192
  0
VERTEX
  5
37C
330
350
100
AcDbEntity
  8
Vorgabe
 62
     9
420
 12566463
100
AcDbVertex
100
AcDbPolyFaceMeshVertex
 10
-31.40000534057617
 20
-19.24999046325683
 30
2161.5
 70
   192
  0
VERTEX
  5
37D
330
350
100
AcDbEntity
  8
Vorgabe
 62
     9
420
 12566463
100
AcDbVertex
100
AcDbPolyFaceMeshVertex
 10
-32.39999389648438
 20
18.2500114440918
 30
2161.5
 70
   192
  0
VERTEX
  5
37E
330
350
100
AcDbEntity
  8
Vorgabe
 62
     9
420
 12566463
100
AcDbVertex
100
AcDbPolyFaceMeshVertex
 10
-31.39999389648437
 20
19.25000953674316
 30
2161.5
 70
   192
  0
VERTEX
  5
37F
330
350
100
AcDbEntity
  8
Vorgabe
 62
     9
420
 12566463
100
AcDbVertex
100
AcDbPolyFaceMeshVertex
 10
31.40000534057617
 20
19.24999046325683
 30
2161.5
 70
   192
  0
VERTEX
  5
380
330
350
100
AcDbEntity
  8
Vorgabe
 62
     9
420
 12566463
100
AcDbVertex
100
AcDbPolyFaceMeshVertex
 10
31.39999389648437
 20
-19.25000953674316
 30
2161.5
 70
   192
  0
VERTEX
  5
381
330
350
100
AcDbEntity
  8
Vorgabe
 62
     9
420
 12566463
100
AcDbFaceRecord
 10
0.0
 20
0.0
 30
0.0
 70
   128
 71
     3
 72
     1
 73
     2
  0
VERTEX
  5
382
330
350
100
AcDbEntity
  8
Vorgabe
 62
     9
420
 12566463
100
AcDbFaceRecord
 10
0.0
 20
0.0
 30
0.0
 70
   128
 71
     1
 72
     3
 73
     4
  0
VERTEX
  5
383
330
350
100
AcDbEntity
  8
Vorgabe
 62
     9
420
 12566463
100
AcDbFaceRecord
 10
0.0
 20
0.0
 30
0.0
 70
   128
 71
     7
 72
     5
 73
     6
  0
VERTEX
  5
384
330
350
100
AcDbEntity
  8
Vorgabe
 62
     9
420
 12566463
100
AcDbFaceRecord
 10
0.0
 20
0.0
 30
0.0
 70
   128
 71
     5
 72
     7
 73
     8
  0
VERTEX
  5
385
330
350
100
AcDbEntity
  8
Vorgabe
 62
     9
420
 12566463
100
AcDbFaceRecord
 10
0.0
 20
0.0
 30
0.0
 70
   128
 71
    11
 72
     9
 73
    10
  0
VERTEX
  5
386
330
350
100
AcDbEntity
  8
Vorgabe
 62
     9
420
 12566463
100
AcDbFaceRecord
 10
0.0
 20
0.0
 30
0.0
 70
   128
 71
    13
 72
    11
 73
    12
  0
VERTEX
  5
387
330
350
100
AcDbEntity
  8
Vorgabe
 62
     9
420
 12566463
100
AcDbFaceRecord
 10
0.0
 20
0.0
 30
0.0
 70
   128
 71
    14
 72
    11
 73
    13
  0
VERTEX
  5
388
330
350
100
AcDbEntity
  8
Vorgabe
 62
     9
420
 12566463
100
AcDbFaceRecord
 10
0.0
 20
0.0
 30
0.0
 70
   128
 71
    15
 72
    11
 73
    14
  0
VERTEX
  5
389
330
350
100
AcDbEntity
  8
Vorgabe
 62
     9
420
 12566463
100
AcDbFaceRecord
 10
0.0
 20
0.0
 30
0.0
 70
   128
 71
    16
 72
    11
 73
    15
  0
VERTEX
  5
38A
330
350
100
AcDbEntity
  8
Vorgabe
 62
     9
420
 12566463
100
AcDbFaceRecord
 10
0.0
 20
0.0
 30
0.0
 70
   128
 71
     9
 72
    11
 73
    16
  0
VERTEX
  5
38B
330
350
100
AcDbEntity
  8
Vorgabe
 62
     9
420
 12566463
100
AcDbFaceRecord
 10
0.0
 20
0.0
 30
0.0
 70
   128
 71
    19
 72
    17
 73
    18
  0
VERTEX
  5
38C
330
350
100
AcDbEntity
  8
Vorgabe
 62
     9
420
 12566463
100
AcDbFaceRecord
 10
0.0
 20
0.0
 30
0.0
 70
   128
 71
    17
 72
    19
 73
    20
  0
VERTEX
  5
38D
330
350
100
AcDbEntity
  8
Vorgabe
 62
     9
420
 12566463
100
AcDbFaceRecord
 10
0.0
 20
0.0
 30
0.0
 70
   128
 71
    23
 72
    21
 73
    22
  0
VERTEX
  5
38E
330
350
100
AcDbEntity
  8
Vorgabe
 62
     9
420
 12566463
100
AcDbFaceRecord
 10
0.0
 20
0.0
 30
0.0
 70
   128
 71
    21
 72
    23
 73
    24
  0
VERTEX
  5
38F
330
350
100
AcDbEntity
  8
Vorgabe
 62
     9
420
 12566463
100
AcDbFaceRecord
 10
0.0
 20
0.0
 30
0.0
 70
   128
 71
    27
 72
    25
 73
    26
  0
VERTEX
  5
390
330
350
100
AcDbEntity
  8
Vorgabe
 62
     9
420
 12566463
100
AcDbFaceRecord
 10
0.0
 20
0.0
 30
0.0
 70
   128
 71
    25
 72
    27
 73
    28
  0
VERTEX
  5
391
330
350
100
AcDbEntity
  8
Vorgabe
 62
     9
420
 12566463
100
AcDbFaceRecord
 10
0.0
 20
0.0
 30
0.0
 70
   128
 71
    31
 72
    29
 73
    30
  0
VERTEX
  5
392
330
350
100
AcDbEntity
  8
Vorgabe
 62
     9
420
 12566463
100
AcDbFaceRecord
 10
0.0
 20
0.0
 30
0.0
 70
   128
 71
    29
 72
    31
 73
    32
  0
VERTEX
  5
393
330
350
100
AcDbEntity
  8
Vorgabe
 62
     9
420
 12566463
100
AcDbFaceRecord
 10
0.0
 20
0.0
 30
0.0
 70
   128
 71
    35
 72
    33
 73
    34
  0
VERTEX
  5
394
330
350
100
AcDbEntity
  8
Vorgabe
 62
     9
420
 12566463
100
AcDbFaceRecord
 10
0.0
 20
0.0
 30
0.0
 70
   128
 71
    33
 72
    35
 73
    36
  0
VERTEX
  5
395
330
350
100
AcDbEntity
  8
Vorgabe
 62
     9
420
 12566463
100
AcDbFaceRecord
 10
0.0
 20
0.0
 30
0.0
 70
   128
 71
    39
 72
    37
 73
    38
  0
VERTEX
  5
396
330
350
100
AcDbEntity
  8
Vorgabe
 62
     9
420
 12566463
100
AcDbFaceRecord
 10
0.0
 20
0.0
 30
0.0
 70
   128
 71
    37
 72
    39
 73
    40
  0
VERTEX
  5
397
330
350
100
AcDbEntity
  8
Vorgabe
 62
     9
420
 12566463
100
AcDbFaceRecord
 10
0.0
 20
0.0
 30
0.0
 70
   128
 71
    47
 72
    41
 73
    42
  0
VERTEX
  5
398
330
350
100
AcDbEntity
  8
Vorgabe
 62
     9
420
 12566463
100
AcDbFaceRecord
 10
0.0
 20
0.0
 30
0.0
 70
   128
 71
    48
 72
    43
 73
    44
  0
VERTEX
  5
399
330
350
100
AcDbEntity
  8
Vorgabe
 62
     9
420
 12566463
100
AcDbFaceRecord
 10
0.0
 20
0.0
 30
0.0
 70
   128
 71
    48
 72
    45
 73
    43
  0
VERTEX
  5
39A
330
350
100
AcDbEntity
  8
Vorgabe
 62
     9
420
 12566463
100
AcDbFaceRecord
 10
0.0
 20
0.0
 30
0.0
 70
   128
 71
    48
 72
    46
 73
    45
  0
VERTEX
  5
39B
330
350
100
AcDbEntity
  8
Vorgabe
 62
     9
420
 12566463
100
AcDbFaceRecord
 10
0.0
 20
0.0
 30
0.0
 70
   128
 71
    48
 72
    47
 73
    46
  0
VERTEX
  5
39C
330
350
100
AcDbEntity
  8
Vorgabe
 62
     9
420
 12566463
100
AcDbFaceRecord
 10
0.0
 20
0.0
 30
0.0
 70
   128
 71
    41
 72
    47
 73
    48
  0
SEQEND
  5
39D
330
350
100
AcDbEntity
  8
Vorgabe
 62
     9
420
 12566463
  0
ENDSEC
  0
SECTION
  2
OBJECTS
  0
DICTIONARY
  5
C
330
0
100
AcDbDictionary
281
     1
  3
ACAD_COLOR
350
DC
  3
ACAD_DETAILVIEWSTYLE
350
F5
  3
ACAD_GROUP
350
D
  3
ACAD_LAYOUT
350
1A
  3
ACAD_MATERIAL
350
AA
  3
ACAD_MLEADERSTYLE
350
F1
  3
ACAD_MLINESTYLE
350
17
  3
ACAD_PLOTSETTINGS
350
19
  3
ACAD_PLOTSTYLENAME
350
E
  3
ACAD_SCALELIST
350
DF
  3
ACAD_SECTIONVIEWSTYLE
350
F3
  3
ACAD_TABLESTYLE
350
DD
  3
ACAD_VISUALSTYLE
350
C3
  3
ACDB_RECOMPOSE_DATA
350
3AE
  3
AcDbVariableDictionary
350
3A1
  0
DICTIONARY
  5
DC
102
{ACAD_REACTORS
330
C
102
}
330
C
100
AcDbDictionary
281
     1
  0
DICTIONARY
  5
F5
102
{ACAD_REACTORS
330
C
102
}
330
C
100
AcDbDictionary
281
     1
  3
Imperial24
350
F6
  0
DICTIONARY
  5
D
102
{ACAD_REACTORS
330
C
102
}
330
C
100
AcDbDictionary
281
     1
  3
5mx5-1_Silica
350
39E
  3
5mx5-1_Silica-additional_1
350
3A0
  3
5mx5-1_Silica-measured_1
350
39F
  0
DICTIONARY
  5
1A
102
{ACAD_REACTORS
330
C
102
}
330
C
100
AcDbDictionary
281
     1
  3
Layout1
350
1E
  3
Layout2
350
26
  3
Model
350
22
  0
DICTIONARY
  5
AA
102
{ACAD_REACTORS
330
C
102
}
330
C
100
AcDbDictionary
281
     1
  3
ByBlock
350
B3
  3
ByLayer
350
AB
  3
Global
350
BB
  0
DICTIONARY
  5
F1
102
{ACAD_REACTORS
330
C
102
}
330
C
100
AcDbDictionary
281
     1
  3
Standard
350
F2
  0
DICTIONARY
  5
17
102
{ACAD_REACTORS
330
C
102
}
330
C
100
AcDbDictionary
281
     1
  3
Standard
350
18
  0
DICTIONARY
  5
19
102
{ACAD_REACTORS
330
C
102
}
330
C
100
AcDbDictionary
281
     1
  0
ACDBDICTIONARYWDFLT
  5
E
102
{ACAD_REACTORS
330
C
102
}
330
C
100
AcDbDictionary
281
     1
  3
ByLayer
350
2D
  3
Normal
350
F
100
AcDbDictionaryWithDefault
340
F
  0
DICTIONARY
  5
DF
102
{ACAD_REACTORS
330
C
102
}
330
C
100
AcDbDictionary
281
     1
  3
A0
350
E0
  3
A1
350
E1
  3
A2
350
E2
  3
A3
350
E3
  3
A4
350
E4
  3
A5
350
E5
  3
A6
350
E6
  3
A7
350
E7
  3
A8
350
E8
  3
A9
350
E9
  3
B0
350
EA
  3
B1
350
EB
  3
B2
350
EC
  3
B3
350
ED
  3
B4
350
EE
  3
B5
350
EF
  3
B6
350
F0
  0
DICTIONARY
  5
F3
102
{ACAD_REACTORS
330
C
102
}
330
C
100
AcDbDictionary
281
     1
  3
Imperial24
350
F4
  0
DICTIONARY
  5
DD
102
{ACAD_REACTORS
330
C
102
}
330
C
100
AcDbDictionary
281
     1
  3
Standard
350
DE
  0
DICTIONARY
  5
C3
102
{ACAD_REACTORS
330
C
102
}
330
C
100
AcDbDictionary
281
     1
  3
2dWireframe
350
C9
  3
Basic
350
C8
  3
Brighten
350
CF
  3
ColorChange
350
D3
  3
Conceptual
350
CC
  3
Dim
350
CE
  3
EdgeColorOff
350
DB
  3
Facepattern
350
D2
  3
Flat
350
C4
  3
FlatWithEdges
350
C5
  3
Gouraud
350
C6
  3
GouraudWithEdges
350
C7
  3
Hidden
350
CB
  3
JitterOff
350
D9
  3
Linepattern
350
D1
  3
OverhangOff
350
DA
  3
Realistic
350
CD
  3
Shaded
350
D8
  3
Shaded with edges
350
D7
  3
Shades of Gray
350
D4
  3
Sketchy
350
D5
  3
Thicken
350
D0
  3
Wireframe
350
CA
  3
X-Ray
350
D6
  0
XRECORD
  5
3AE
102
{ACAD_REACTORS
330
C
102
}
330
C
100
AcDbXrecord
280
     1
 90
        1
330
DE
  0
DICTIONARY
  5
3A1
102
{ACAD_REACTORS
330
C
102
}
330
C
100
AcDbDictionary
281
     1
  3
CANNOSCALE
350
3A7
  3
CMLEADERSTYLE
350
3A3
  3
CTABLESTYLE
350
3A2
  3
CVIEWDETAILSTYLE
350
3A4
  3
CVIEWSECTIONSTYLE
350
3A5
  3
LAYEREVAL
350
3A9
  3
LAYERNOTIFY
350
3AA
  3
LIGHTINGUNITS
350
3A8
  3
MSLTSCALE
350
3A6
  3
XCLIPFRAME
350
3AB
  0
ACDBDETAILVIEWSTYLE
  5
F6
102
{ACAD_XDICTIONARY
360
3E4
102
}
102
{ACAD_REACTORS
330
F5
102
}
330
F5
100
AcDbModelDocViewStyle
 70
     0
  3
Imperial24
290
     0
100
AcDbDetailViewStyle
 70
     0
 71
     0
 90
        3
 71
     1
340
11
 62
   256
 40
0.24
340
0
 62
   256
 40
0.24
300

 40
0.36
280
     3
 71
     2
340
16
 90
       25
 62
   256
 71
     3
340
11
 62
   256
 40
0.24
 90
        1
 40
0.75
 90
        1
300
%<\AcVar ViewType \f "%tc1">% %<\AcVar ViewDetailId>%\PSCALE %<\AcVar ViewScale \f "%sn">%
 71
     4
340
16
 90
       25
 62
   256
340
16
 90
       25
 62
   256
280
     0
  0
GROUP
  5
39E
102
{ACAD_REACTORS
330
D
102
}
330
D
100
AcDbGroup
300
5mx5-1_Silica
 70
     0
 71
     1
340
FC
340
1C6
340
1EC
340
212
340
350
  0
GROUP
  5
3A0
102
{ACAD_REACTORS
330
D
102
}
330
D
100
AcDbGroup
300
5mx5-1_Silica-additional_1
 70
     0
 71
     1
340
212
340
350
  0
GROUP
  5
39F
102
{ACAD_REACTORS
330
D
102
}
330
D
100
AcDbGroup
300
5mx5-1_Silica-measured_1
 70
     0
 71
     1
340
FC
340
1C6
340
1EC
  0
LAYOUT
  5
1E
102
{ACAD_REACTORS
330
1A
102
}
330
1A
100
AcDbPlotSettings
  1

  2
\\KTXNTBDC\CASF2PN1
  4

  6

 40
0.0
 41
0.0
 42
0.0
 43
0.0
 44
0.0
 45
0.0
 46
0.0
 47
0.0
 48
0.0
 49
0.0
140
0.0
141
0.0
142
1.0
143
1.0
 70
   688
 72
     0
 73
     0
 74
     5
  7

 75
    16
147
1.0
 76
     0
 77
     2
 78
   300
148
0.0
149
0.0
100
AcDbLayout
  1
Layout1
 70
     1
 71
     1
 10
0.0
 20
0.0
 11
12.0
 21
9.0
 12
0.0
 22
0.0
 32
0.0
 14
1.000000000000000E+20
 24
1.000000000000000E+20
 34
1.000000000000000E+20
 15
-1.000000000000000E+20
 25
-1.000000000000000E+20
 35
-1.000000000000000E+20
146
0.0
 13
0.0
 23
0.0
 33
0.0
 16
1.0
 26
0.0
 36
0.0
 17
0.0
 27
1.0
 37
0.0
 76
     0
330
1B
  0
LAYOUT
  5
26
102
{ACAD_REACTORS
330
1A
102
}
330
1A
100
AcDbPlotSettings
  1

  2
\\KTXNTBDC\CASF2PN1
  4

  6

 40
0.0
 41
0.0
 42
0.0
 43
0.0
 44
0.0
 45
0.0
 46
0.0
 47
0.0
 48
0.0
 49
0.0
140
0.0
141
0.0
142
1.0
143
1.0
 70
   688
 72
     0
 73
     0
 74
     5
  7

 75
    16
147
1.0
 76
     0
 77
     2
 78
   300
148
0.0
149
0.0
100
AcDbLayout
  1
Layout2
 70
     1
 71
     2
 10
0.0
 20
0.0
 11
12.0
 21
9.0
 12
0.0
 22
0.0
 32
0.0
 14
0.0
 24
0.0
 34
0.0
 15
0.0
 25
0.0
 35
0.0
146
0.0
 13
0.0
 23
0.0
 33
0.0
 16
1.0
 26
0.0
 36
0.0
 17
0.0
 27
1.0
 37
0.0
 76
     0
330
23
  0
LAYOUT
  5
22
102
{ACAD_REACTORS
330
1A
102
}
330
1A
100
AcDbPlotSettings
  1

  2
\\KTXNTBDC\CASF2PN1
  4

  6

 40
0.0
 41
0.0
 42
0.0
 43
0.0
 44
0.0
 45
0.0
 46
0.0
 47
0.0
 48
0.0
 49
0.0
140
0.0
141
0.0
142
1.0
143
1.0
 70
  1712
 72
     0
 73
     0
 74
     0
  7

 75
     0
147
1.0
 76
     0
 77
     2
 78
   300
148
0.0
149
0.0
100
AcDbLayout
  1
Model
 70
     1
 71
     0
 10
0.0
 20
0.0
 11
12.0
 21
9.0
 12
0.0
 22
0.0
 32
0.0
 14
0.0
 24
0.0
 34
0.0
 15
0.0
 25
0.0
 35
0.0
146
0.0
 13
0.0
 23
0.0
 33
0.0
 16
1.0
 26
0.0
 36
0.0
 17
0.0
 27
1.0
 37
0.0
 76
     0
330
1F
  0
MATERIAL
  5
B3
102
{ACAD_XDICTIONARY
360
B4
102
}
102
{ACAD_REACTORS
330
AA
102
}
330
AA
100
AcDbMaterial
  1
ByBlock
 72
     0
 43
0.0208333333333333
 43
0.0
 43
0.0
 43
0.0
 43
0.0
 43
0.0208333333333333
 43
0.0
 43
0.0
 43
0.0
 43
0.0
 43
1.0
 43
0.0
 43
0.0
 43
0.0
 43
0.0
 43
1.0
 77
     0
 47
0.0208333333333333
 47
0.0
 47
0.0
 47
0.0
 47
0.0
 47
0.0208333333333333
 47
0.0
 47
0.0
 47
0.0
 47
0.0
 47
1.0
 47
0.0
 47
0.0
 47
0.0
 47
0.0
 47
1.0
171
     0
 49
0.0208333333333333
 49
0.0
 49
0.0
 49
0.0
 49
0.0
 49
0.0208333333333333
 49
0.0
 49
0.0
 49
0.0
 49
0.0
 49
1.0
 49
0.0
 49
0.0
 49
0.0
 49
0.0
 49
1.0
175
     0
142
0.0208333333333333
142
0.0
142
0.0
142
0.0
142
0.0
142
0.0208333333333333
142
0.0
142
0.0
142
0.0
142
0.0
142
1.0
142
0.0
142
0.0
142
0.0
142
0.0
142
1.0
179
     0
144
0.0208333333333333
144
0.0
144
0.0
144
0.0
144
0.0
144
0.0208333333333333
144
0.0
144
0.0
144
0.0
144
0.0
144
1.0
144
0.0
144
0.0
144
0.0
144
0.0
144
1.0
147
0.0208333333333333
147
0.0
147
0.0
147
0.0
147
0.0
147
0.0208333333333333
147
0.0
147
0.0
147
0.0
147
0.0
147
1.0
147
0.0
147
0.0
147
0.0
147
0.0
147
1.0
  0
MATERIAL
  5
AB
102
{ACAD_XDICTIONARY
360
AC
102
}
102
{ACAD_REACTORS
330
AA
102
}
330
AA
100
AcDbMaterial
  1
ByLayer
 72
     0
 43
0.0208333333333333
 43
0.0
 43
0.0
 43
0.0
 43
0.0
 43
0.0208333333333333
 43
0.0
 43
0.0
 43
0.0
 43
0.0
 43
1.0
 43
0.0
 43
0.0
 43
0.0
 43
0.0
 43
1.0
 77
     0
 47
0.0208333333333333
 47
0.0
 47
0.0
 47
0.0
 47
0.0
 47
0.0208333333333333
 47
0.0
 47
0.0
 47
0.0
 47
0.0
 47
1.0
 47
0.0
 47
0.0
 47
0.0
 47
0.0
 47
1.0
171
     0
 49
0.0208333333333333
 49
0.0
 49
0.0
 49
0.0
 49
0.0
 49
0.0208333333333333
 49
0.0
 49
0.0
 49
0.0
 49
0.0
 49
1.0
 49
0.0
 49
0.0
 49
0.0
 49
0.0
 49
1.0
175
     0
142
0.0208333333333333
142
0.0
142
0.0
142
0.0
142
0.0
142
0.0208333333333333
142
0.0
142
0.0
142
0.0
142
0.0
142
1.0
142
0.0
142
0.0
142
0.0
142
0.0
142
1.0
179
     0
144
0.0208333333333333
144
0.0
144
0.0
144
0.0
144
0.0
144
0.0208333333333333
144
0.0
144
0.0
144
0.0
144
0.0
144
1.0
144
0.0
144
0.0
144
0.0
144
0.0
144
1.0
147
0.0208333333333333
147
0.0
147
0.0
147
0.0
147
0.0
147
0.0208333333333333
147
0.0
147
0.0
147
0.0
147
0.0
147
1.0
147
0.0
147
0.0
147
0.0
147
0.0
147
1.0
  0
MATERIAL
  5
BB
102
{ACAD_XDICTIONARY
360
BC
102
}
102
{ACAD_REACTORS
330
AA
102
}
330
AA
100
AcDbMaterial
  1
Global
 72
     0
 43
0.0208333333333333
 43
0.0
 43
0.0
 43
0.0
 43
0.0
 43
0.0208333333333333
 43
0.0
 43
0.0
 43
0.0
 43
0.0
 43
1.0
 43
0.0
 43
0.0
 43
0.0
 43
0.0
 43
1.0
 77
     0
 47
0.0208333333333333
 47
0.0
 47
0.0
 47
0.0
 47
0.0
 47
0.0208333333333333
 47
0.0
 47
0.0
 47
0.0
 47
0.0
 47
1.0
 47
0.0
 47
0.0
 47
0.0
 47
0.0
 47
1.0
171
     0
 49
0.0208333333333333
 49
0.0
 49
0.0
 49
0.0
 49
0.0
 49
0.0208333333333333
 49
0.0
 49
0.0
 49
0.0
 49
0.0
 49
1.0
 49
0.0
 49
0.0
 49
0.0
 49
0.0
 49
1.0
175
     0
142
0.0208333333333333
142
0.0
142
0.0
142
0.0
142
0.0
142
0.0208333333333333
142
0.0
142
0.0
142
0.0
142
0.0
142
1.0
142
0.0
142
0.0
142
0.0
142
0.0
142
1.0
179
     0
144
0.0208333333333333
144
0.0
144
0.0
144
0.0
144
0.0
144
0.0208333333333333
144
0.0
144
0.0
144
0.0
144
0.0
144
1.0
144
0.0
144
0.0
144
0.0
144
0.0
144
1.0
147
0.0208333333333333
147
0.0
147
0.0
147
0.0
147
0.0
147
0.0208333333333333
147
0.0
147
0.0
147
0.0
147
0.0
147
1.0
147
0.0
147
0.0
147
0.0
147
0.0
147
1.0
  0
MLEADERSTYLE
  5
F2
102
{ACAD_XDICTIONARY
360
3E0
102
}
102
{ACAD_REACTORS
330
F1
102
}
330
F1
100
AcDbMLeaderStyle
170
     2
171
     1
172
     0
 90
        2
 40
0.0
 41
0.0
173
     1
 91
-1056964608
340
14
 92
       -2
290
     1
 42
0.09
291
     1
 43
0.36
  3
Standard
 44
0.18
300

342
11
174
     1
178
     6
175
     1
176
     0
 93
-1056964608
 45
0.18
292
     0
297
     0
 46
0.18
 94
-1056964608
 47
1.0
 49
1.0
140
1.0
293
     1
141
0.0
294
     1
177
     0
142
1.0
295
     0
296
     0
143
0.125
1001
ACAD_MLEADERVER
1070
     2
  0
MLINESTYLE
  5
18
102
{ACAD_REACTORS
330
17
102
}
330
17
100
AcDbMlineStyle
  2
STANDARD
 70
     0
  3

 62
   256
 51
90.0
 52
90.0
 71
     2
 49
0.5
 62
   256
  6
BYLAYER
 49
-0.5
 62
   256
  6
BYLAYER
  0
ACDBPLACEHOLDER
  5
2D
102
{ACAD_REACTORS
330
E
102
}
330
E
  0
ACDBPLACEHOLDER
  5
F
102
{ACAD_REACTORS
330
E
102
}
330
E
  0
SCALE
  5
E0
102
{ACAD_REACTORS
330
DF
102
}
330
DF
100
AcDbScale
 70
     0
300
1:1
140
1.0
141
1.0
290
     1
  0
SCALE
  5
E1
102
{ACAD_REACTORS
330
DF
102
}
330
DF
100
AcDbScale
 70
     0
300
1/128" = 1'-0"
140
0.0078125
141
12.0
290
     0
  0
SCALE
  5
E2
102
{ACAD_REACTORS
330
DF
102
}
330
DF
100
AcDbScale
 70
     0
300
1/64" = 1'-0"
140
0.015625
141
12.0
290
     0
  0
SCALE
  5
E3
102
{ACAD_REACTORS
330
DF
102
}
330
DF
100
AcDbScale
 70
     0
300
1/32" = 1'-0"
140
0.03125
141
12.0
290
     0
  0
SCALE
  5
E4
102
{ACAD_REACTORS
330
DF
102
}
330
DF
100
AcDbScale
 70
     0
300
1/16" = 1'-0"
140
0.0625
141
12.0
290
     0
  0
SCALE
  5
E5
102
{ACAD_REACTORS
330
DF
102
}
330
DF
100
AcDbScale
 70
     0
300
3/32" = 1'-0"
140
0.09375
141
12.0
290
     0
  0
SCALE
  5
E6
102
{ACAD_REACTORS
330
DF
102
}
330
DF
100
AcDbScale
 70
     0
300
1/8" = 1'-0"
140
0.125
141
12.0
290
     0
  0
SCALE
  5
E7
102
{ACAD_REACTORS
330
DF
102
}
330
DF
100
AcDbScale
 70
     0
300
3/16" = 1'-0"
140
0.1875
141
12.0
290
     0
  0
SCALE
  5
E8
102
{ACAD_REACTORS
330
DF
102
}
330
DF
100
AcDbScale
 70
     0
300
1/4" = 1'-0"
140
0.25
141
12.0
290
     0
  0
SCALE
  5
E9
102
{ACAD_REACTORS
330
DF
102
}
330
DF
100
AcDbScale
 70
     0
300
3/8" = 1'-0"
140
0.375
141
12.0
290
     0
  0
SCALE
  5
EA
102
{ACAD_REACTORS
330
DF
102
}
330
DF
100
AcDbScale
 70
     0
300
1/2" = 1'-0"
140
0.5
141
12.0
290
     0
  0
SCALE
  5
EB
102
{ACAD_REACTORS
330
DF
102
}
330
DF
100
AcDbScale
 70
     0
300
3/4" = 1'-0"
140
0.75
141
12.0
290
     0
  0
SCALE
  5
EC
102
{ACAD_REACTORS
330
DF
102
}
330
DF
100
AcDbScale
 70
     0
300
1" = 1'-0"
140
1.0
141
12.0
290
     0
  0
SCALE
  5
ED
102
{ACAD_REACTORS
330
DF
102
}
330
DF
100
AcDbScale
 70
     0
300
1-1/2" = 1'-0"
140
1.5
141
12.0
290
     0
  0
SCALE
  5
EE
102
{ACAD_REACTORS
330
DF
102
}
330
DF
100
AcDbScale
 70
     0
300
3" = 1'-0"
140
3.0
141
12.0
290
     0
  0
SCALE
  5
EF
102
{ACAD_REACTORS
330
DF
102
}
330
DF
100
AcDbScale
 70
     0
300
6" = 1'-0"
140
6.0
141
12.0
290
     0
  0
SCALE
  5
F0
102
{ACAD_REACTORS
330
DF
102
}
330
DF
100
AcDbScale
 70
     0
300
1'-0" = 1'-0"
140
12.0
141
12.0
290
     0
  0
ACDBSECTIONVIEWSTYLE
  5
F4
102
{ACAD_XDICTIONARY
360
3E2
102
}
102
{ACAD_REACTORS
330
F3
102
}
330
F3
100
AcDbModelDocViewStyle
 70
     0
  3
Imperial24
290
     0
100
AcDbSectionViewStyle
 70
     0
 71
     0
 90
       78
 71
     1
340
11
 62
   256
 40
0.24
340
0
340
0
 62
   256
 40
0.24
300
I, O, Q, S, X, Z
 40
0.48
 90
        3
 40
0.18
 90
        1
 71
     2
340
16
 90
       25
 62
   256
340
16
 90
       50
 62
   256
 40
0.24
 40
0.0
 40
0.24
 71
     3
340
11
 62
   256
 40
0.24
 90
        1
 40
0.75
 90
        1
300
%<\AcVar ViewType \f "%tc1">% %<\AcVar ViewSectionStartId>%-%<\AcVar ViewSectionEndId>%\PSCALE %<\AcVar ViewScale \f "%sn">%
 71
     4
 62
   256
 62
   257
300
ANSI31
 40
1.0
 90
        0
290
     0
290
     0
 90
        6
 40
0.0
 40
1.570796326794896
 40
0.2617993877991494
 40
1.308996938995747
 40
-0.2617993877991494
 40
1.832595714594046
  0
TABLESTYLE
  5
DE
102
{ACAD_XDICTIONARY
360
3AC
102
}
102
{ACAD_REACTORS
330
DD
102
}
330
DD
100
AcDbTableStyle
  3
Standard
 70
     0
 71
     0
 40
0.06
 41
0.06
280
     0
281
     0
  7
Standard
140
0.18
170
     2
 62
     0
 63
     7
283
     0
 90
      512
 91
        0
  1

274
    -2
284
     1
 64
     0
275
    -2
285
     1
 65
     0
276
    -2
286
     1
 66
     0
277
    -2
287
     1
 67
     0
278
    -2
288
     1
 68
     0
279
    -2
289
     1
 69
     0
  7
Standard
140
0.25
170
     5
 62
     0
 63
     7
283
     0
 90
      512
 91
        0
  1

274
    -2
284
     1
 64
     0
275
    -2
285
     1
 65
     0
276
    -2
286
     1
 66
     0
277
    -2
287
     1
 67
     0
278
    -2
288
     1
 68
     0
279
    -2
289
     1
 69
     0
  7
Standard
140
0.18
170
     5
 62
     0
 63
     7
283
     0
 90
      512
 91
        0
  1

274
    -2
284
     1
 64
     0
275
    -2
285
     1
 65
     0
276
    -2
286
     1
 66
     0
277
    -2
287
     1
 67
     0
278
    -2
288
     1
 68
     0
279
    -2
289
     1
 69
     0
  0
VISUALSTYLE
  5
C9
102
{ACAD_XDICTIONARY
360
3B9
102
}
102
{ACAD_REACTORS
330
C3
102
}
330
C3
100
AcDbVisualStyle
  2
2dWireframe
 70
     4
 71
     0
 72
     2
 73
     0
 90
        0
 40
-0.6
 41
-30.0
 62
     5
 63
     7
421
 16777215
 74
     1
 91
        4
 64
     7
 65
   257
 75
     1
175
     1
 42
1.0
 92
        0
 66
   257
 43
1.0
 76
     1
 77
     6
 78
     2
 67
     7
 79
     5
170
     0
171
     0
290
     0
174
     0
 93
        1
 44
0.0
173
     0
291
     0
 45
0.0
1001
ACAD
1000
AcDbSavedByObjectVersion
1070
     0
  0
VISUALSTYLE
  5
C8
102
{ACAD_XDICTIONARY
360
3B7
102
}
102
{ACAD_REACTORS
330
C3
102
}
330
C3
100
AcDbVisualStyle
  2
Basic
 70
     7
 71
     1
 72
     0
 73
     1
 90
        0
 40
-0.6
 41
-30.0
 62
     5
 63
     7
421
 16777215
 74
     0
 91
        4
 64
     7
 65
   257
 75
     1
175
     1
 42
1.0
 92
        8
 66
     7
 43
1.0
 76
     1
 77
     6
 78
     2
 67
     7
 79
     5
170
     0
171
     0
290
     0
174
     0
 93
        1
 44
0.0
173
     0
291
     1
 45
0.0
1001
ACAD
1000
AcDbSavedByObjectVersion
1070
     0
  0
VISUALSTYLE
  5
CF
102
{ACAD_XDICTIONARY
360
3C5
102
}
102
{ACAD_REACTORS
330
C3
102
}
330
C3
100
AcDbVisualStyle
  2
Brighten
 70
    12
 71
     2
 72
     2
 73
     0
 90
        0
 40
-0.6
 41
-30.0
 62
     5
 63
     7
421
 16777215
 74
     1
 91
        4
 64
     7
 65
   257
 75
     1
175
     1
 42
1.0
 92
        8
 66
     7
 43
1.0
 76
     1
 77
     6
 78
     2
 67
     7
 79
     5
170
     0
171
     0
290
     0
174
     0
 93
        1
 44
50.0
173
     0
291
     1
 45
0.0
1001
ACAD
1000
AcDbSavedByObjectVersion
1070
     0
  0
VISUALSTYLE
  5
D3
102
{ACAD_XDICTIONARY
360
3CD
102
}
102
{ACAD_REACTORS
330
C3
102
}
330
C3
100
AcDbVisualStyle
  2
ColorChange
 70
    16
 71
     2
 72
     2
 73
     3
 90
        0
 40
-0.6
 41
-30.0
 62
     5
 63
     8
421
  8421504
 74
     1
 91
        4
 64
     7
 65
   257
 75
     1
175
     1
 42
1.0
 92
        8
 66
     8
424
  8421504
 43
1.0
 76
     1
 77
     6
 78
     2
 67
     7
 79
     5
170
     0
171
     0
290
     0
174
     0
 93
        1
 44
0.0
173
     0
291
     1
 45
0.0
1001
ACAD
1000
AcDbSavedByObjectVersion
1070
     0
  0
VISUALSTYLE
  5
CC
102
{ACAD_XDICTIONARY
360
3BF
102
}
102
{ACAD_REACTORS
330
C3
102
}
330
C3
100
AcDbVisualStyle
  2
Conceptual
 70
     9
 71
     3
 72
     2
 73
     0
 90
        0
 40
-0.6
 41
-30.0
 62
     5
 63
     7
421
 16777215
 74
     2
 91
        2
 64
     7
 65
   257
 75
     1
175
     1
 42
179.0
 92
        8
 66
     7
 43
1.0
 76
     1
 77
     6
 78
     2
 67
     7
 79
     3
170
     0
171
     0
290
     0
174
     0
 93
        1
 44
0.0
173
     0
291
     0
 45
0.0
1001
ACAD
1000
AcDbSavedByObjectVersion
1070
     0
  0
VISUALSTYLE
  5
CE
102
{ACAD_XDICTIONARY
360
3C3
102
}
102
{ACAD_REACTORS
330
C3
102
}
330
C3
100
AcDbVisualStyle
  2
Dim
 70
    11
 71
     2
 72
     2
 73
     0
 90
        0
 40
-0.6
 41
-30.0
 62
     5
 63
     7
421
 16777215
 74
     1
 91
        4
 64
     7
 65
   257
 75
     1
175
     1
 42
1.0
 92
        8
 66
     7
 43
1.0
 76
     1
 77
     6
 78
     2
 67
     7
 79
     5
170
     0
171
     0
290
     0
174
     0
 93
        1
 44
-50.0
173
     0
291
     1
 45
0.0
1001
ACAD
1000
AcDbSavedByObjectVersion
1070
     0
  0
VISUALSTYLE
  5
DB
102
{ACAD_XDICTIONARY
360
3DD
102
}
102
{ACAD_REACTORS
330
C3
102
}
330
C3
100
AcDbVisualStyle
  2
EdgeColorOff
 70
    22
 71
     2
 72
     2
 73
     0
 90
        0
 40
-0.6
 41
-30.0
 62
     5
 63
     7
421
 16777215
 74
     1
 91
        4
 64
     7
 65
   257
 75
     1
175
     1
 42
1.0
 92
        8
 66
     7
 43
1.0
 76
     1
 77
     6
 78
     2
 67
     7
 79
     5
170
     0
171
     0
290
     0
174
     0
 93
        1
 44
0.0
173
     0
291
     1
 45
0.0
1001
ACAD
1000
AcDbSavedByObjectVersion
1070
     0
  0
VISUALSTYLE
  5
D2
102
{ACAD_XDICTIONARY
360
3CB
102
}
102
{ACAD_REACTORS
330
C3
102
}
330
C3
100
AcDbVisualStyle
  2
Facepattern
 70
    15
 71
     2
 72
     2
 73
     0
 90
        0
 40
-0.6
 41
-30.0
 62
     5
 63
     7
421
 16777215
 74
     1
 91
        4
 64
     7
 65
   257
 75
     1
175
     1
 42
1.0
 92
        8
 66
     7
 43
1.0
 76
     1
 77
     6
 78
     2
 67
     7
 79
     5
170
     0
171
     0
290
     0
174
     0
 93
        1
 44
0.0
173
     0
291
     1
 45
0.0
1001
ACAD
1000
AcDbSavedByObjectVersion
1070
     0
  0
VISUALSTYLE
  5
C4
102
{ACAD_XDICTIONARY
360
3AF
102
}
102
{ACAD_REACTORS
330
C3
102
}
330
C3
100
AcDbVisualStyle
  2
Flat
 70
     0
 71
     2
 72
     1
 73
     1
 90
        2
 40
-0.6
 41
30.0
 62
     5
 63
     7
421
 16777215
 74
     0
 91
        0
 64
     7
 65
   257
 75
     1
175
     1
 42
1.0
 92
        8
 66
     7
 43
1.0
 76
     1
 77
     6
 78
     2
 67
     7
 79
     5
170
     0
171
     0
290
     0
174
     0
 93
       13
 44
0.0
173
     0
291
     1
 45
0.0
1001
ACAD
1000
AcDbSavedByObjectVersion
1070
     0
  0
VISUALSTYLE
  5
C5
102
{ACAD_XDICTIONARY
360
3B1
102
}
102
{ACAD_REACTORS
330
C3
102
}
330
C3
100
AcDbVisualStyle
  2
FlatWithEdges
 70
     1
 71
     2
 72
     1
 73
     1
 90
        2
 40
-0.6
 41
30.0
 62
     5
 63
     7
421
 16777215
 74
     1
 91
        0
 64
     7
 65
   257
 75
     1
175
     1
 42
1.0
 92
        0
 66
   257
 43
1.0
 76
     1
 77
     6
 78
     2
 67
     7
 79
     5
170
     0
171
     0
290
     0
174
     0
 93
       13
 44
0.0
173
     0
291
     1
 45
0.0
1001
ACAD
1000
AcDbSavedByObjectVersion
1070
     0
  0
VISUALSTYLE
  5
C6
102
{ACAD_XDICTIONARY
360
3B3
102
}
102
{ACAD_REACTORS
330
C3
102
}
330
C3
100
AcDbVisualStyle
  2
Gouraud
 70
     2
 71
     2
 72
     2
 73
     1
 90
        2
 40
-0.6
 41
30.0
 62
     5
 63
     7
421
 16777215
 74
     0
 91
        0
 64
     7
 65
   257
 75
     1
175
     1
 42
1.0
 92
        0
 66
     7
 43
1.0
 76
     1
 77
     6
 78
     2
 67
     7
 79
     5
170
     0
171
     0
290
     0
174
     0
 93
       13
 44
0.0
173
     0
291
     1
 45
0.0
1001
ACAD
1000
AcDbSavedByObjectVersion
1070
     0
  0
VISUALSTYLE
  5
C7
102
{ACAD_XDICTIONARY
360
3B5
102
}
102
{ACAD_REACTORS
330
C3
102
}
330
C3
100
AcDbVisualStyle
  2
GouraudWithEdges
 70
     3
 71
     2
 72
     2
 73
     1
 90
        2
 40
-0.6
 41
30.0
 62
     5
 63
     7
421
 16777215
 74
     1
 91
        0
 64
     7
 65
   257
 75
     1
175
     1
 42
1.0
 92
        0
 66
   257
 43
1.0
 76
     1
 77
     6
 78
     2
 67
     7
 79
     5
170
     0
171
     0
290
     0
174
     0
 93
       13
 44
0.0
173
     0
291
     1
 45
0.0
1001
ACAD
1000
AcDbSavedByObjectVersion
1070
     0
  0
VISUALSTYLE
  5
CB
102
{ACAD_XDICTIONARY
360
3BD
102
}
102
{ACAD_REACTORS
330
C3
102
}
330
C3
100
AcDbVisualStyle
  2
Hidden
 70
     6
 71
     1
 72
     2
 73
     2
 90
        0
 40
-0.6
 41
-30.0
 62
     5
 63
     7
421
 16777215
 74
     2
 91
        2
 64
     7
 65
   257
 75
     2
175
     1
 42
40.0
 92
        0
 66
   257
 43
1.0
 76
     1
 77
     6
 78
     2
 67
     7
 79
     3
170
     0
171
     0
290
     0
174
     0
 93
        1
 44
0.0
173
     0
291
     0
 45
0.0
1001
ACAD
1000
AcDbSavedByObjectVersion
1070
     0
  0
VISUALSTYLE
  5
D9
102
{ACAD_XDICTIONARY
360
3D9
102
}
102
{ACAD_REACTORS
330
C3
102
}
330
C3
100
AcDbVisualStyle
  2
JitterOff
 70
    20
 71
     2
 72
     2
 73
     0
 90
        0
 40
-0.6
 41
-30.0
 62
     5
 63
     7
421
 16777215
 74
     1
 91
        4
 64
     7
 65
   257
 75
     1
175
     1
 42
1.0
 92
       10
 66
     7
 43
1.0
 76
     1
 77
     6
 78
     2
 67
     7
 79
     5
170
     0
171
     0
290
     0
174
     0
 93
        1
 44
0.0
173
     0
291
     1
 45
0.0
1001
ACAD
1000
AcDbSavedByObjectVersion
1070
     0
  0
VISUALSTYLE
  5
D1
102
{ACAD_XDICTIONARY
360
3C9
102
}
102
{ACAD_REACTORS
330
C3
102
}
330
C3
100
AcDbVisualStyle
  2
Linepattern
 70
    14
 71
     2
 72
     2
 73
     0
 90
        0
 40
-0.6
 41
-30.0
 62
     5
 63
     7
421
 16777215
 74
     1
 91
        4
 64
     7
 65
   257
 75
     7
175
     7
 42
1.0
 92
        8
 66
     7
 43
1.0
 76
     1
 77
     6
 78
     2
 67
     7
 79
     5
170
     0
171
     0
290
     0
174
     0
 93
        1
 44
0.0
173
     0
291
     1
 45
0.0
1001
ACAD
1000
AcDbSavedByObjectVersion
1070
     0
  0
VISUALSTYLE
  5
DA
102
{ACAD_XDICTIONARY
360
3DB
102
}
102
{ACAD_REACTORS
330
C3
102
}
330
C3
100
AcDbVisualStyle
  2
OverhangOff
 70
    21
 71
     2
 72
     2
 73
     0
 90
        0
 40
-0.6
 41
-30.0
 62
     5
 63
     7
421
 16777215
 74
     1
 91
        4
 64
     7
 65
   257
 75
     1
175
     1
 42
1.0
 92
        9
 66
     7
 43
1.0
 76
     1
 77
     6
 78
     2
 67
     7
 79
     5
170
     0
171
     0
290
     0
174
     0
 93
        1
 44
0.0
173
     0
291
     1
 45
0.0
1001
ACAD
1000
AcDbSavedByObjectVersion
1070
     0
  0
VISUALSTYLE
  5
CD
102
{ACAD_XDICTIONARY
360
3C1
102
}
102
{ACAD_REACTORS
330
C3
102
}
330
C3
100
AcDbVisualStyle
  2
Realistic
 70
     8
 71
     2
 72
     3
 73
     0
 90
        2
 40
-0.6
 41
30.0
 62
     5
 63
     7
421
 16777215
 74
     0
 91
        0
 64
     7
 65
   257
 75
     1
175
     1
 42
1.0
 92
        8
 66
   257
 43
1.0
 76
     1
 77
     6
 78
     2
 67
     7
 79
     3
170
     0
171
     0
290
     0
174
     0
 93
       13
 44
0.0
173
     0
291
     0
 45
0.0
1001
ACAD
1000
AcDbSavedByObjectVersion
1070
     0
  0
VISUALSTYLE
  5
D8
102
{ACAD_XDICTIONARY
360
3D7
102
}
102
{ACAD_REACTORS
330
C3
102
}
330
C3
100
AcDbVisualStyle
  2
Shaded
 70
    27
 71
     2
 72
     2
 73
     1
 90
        2
 40
-0.6
 41
30.0
 62
     5
 63
     7
421
 16777215
 74
     0
 91
        4
 64
     7
 65
   257
 75
     1
175
     1
 42
1.0
 92
        8
 66
   257
 43
1.0
 76
     1
 77
     6
 78
     2
 67
     8
425
  7895160
 79
     3
170
     0
171
     0
290
     0
174
     0
 93
        5
 44
0.0
173
     0
291
     0
 45
0.0
1001
ACAD
1000
AcDbSavedByObjectVersion
1070
     0
  0
VISUALSTYLE
  5
D7
102
{ACAD_XDICTIONARY
360
3D5
102
}
102
{ACAD_REACTORS
330
C3
102
}
330
C3
100
AcDbVisualStyle
  2
Shaded with edges
 70
    26
 71
     2
 72
     2
 73
     1
 90
        2
 40
-0.6
 41
30.0
 62
     5
 63
     7
421
 16777215
 74
     1
 91
       10
 64
     7
 65
   257
 75
     2
175
     1
 42
1.0
 92
        8
 66
   257
 43
1.0
 76
     1
 77
     6
 78
     2
 67
     7
 79
     3
170
     0
171
     0
290
     0
174
     0
 93
        5
 44
0.0
173
     0
291
     0
 45
0.0
1001
ACAD
1000
AcDbSavedByObjectVersion
1070
     0
  0
VISUALSTYLE
  5
D4
102
{ACAD_XDICTIONARY
360
3CF
102
}
102
{ACAD_REACTORS
330
C3
102
}
330
C3
100
AcDbVisualStyle
  2
Shades of Gray
 70
    23
 71
     2
 72
     2
 73
     3
 90
        0
 40
-0.6
 41
-30.0
 62
     5
 63
     7
421
 16777215
 74
     2
 91
        2
 64
     7
 65
     7
 75
     1
175
     1
 42
40.0
 92
        8
 66
     7
 43
1.0
 76
     1
 77
     6
 78
     2
 67
     7
 79
     3
170
     0
171
     0
290
     0
174
     0
 93
        1
 44
0.0
173
     0
291
     0
 45
0.0
1001
ACAD
1000
AcDbSavedByObjectVersion
1070
     0
  0
VISUALSTYLE
  5
D5
102
{ACAD_XDICTIONARY
360
3D1
102
}
102
{ACAD_REACTORS
330
C3
102
}
330
C3
100
AcDbVisualStyle
  2
Sketchy
 70
    24
 71
     1
 72
     2
 73
     2
 90
        0
 40
-0.6
 41
-30.0
 62
     5
 63
     7
421
 16777215
 74
     2
 91
        2
 64
     7
 65
     7
 75
     1
175
     1
 42
40.0
 92
       11
 66
     7
 43
1.0
 76
     1
 77
     6
 78
     2
 67
     7
 79
     6
170
     0
171
     0
290
     0
174
     0
 93
        1
 44
0.0
173
     0
291
     0
 45
0.0
1001
ACAD
1000
AcDbSavedByObjectVersion
1070
     0
  0
VISUALSTYLE
  5
D0
102
{ACAD_XDICTIONARY
360
3C7
102
}
102
{ACAD_REACTORS
330
C3
102
}
330
C3
100
AcDbVisualStyle
  2
Thicken
 70
    13
 71
     2
 72
     2
 73
     0
 90
        0
 40
-0.6
 41
-30.0
 62
     5
 63
     7
421
 16777215
 74
     1
 91
        4
 64
     7
 65
   257
 75
     1
175
     1
 42
1.0
 92
       12
 66
     7
 43
1.0
 76
     1
 77
     6
 78
     2
 67
     7
 79
     5
170
     0
171
     0
290
     0
174
     0
 93
        1
 44
0.0
173
     0
291
     1
 45
0.0
1001
ACAD
1000
AcDbSavedByObjectVersion
1070
     0
  0
VISUALSTYLE
  5
CA
102
{ACAD_XDICTIONARY
360
3BB
102
}
102
{ACAD_REACTORS
330
C3
102
}
330
C3
100
AcDbVisualStyle
  2
Wireframe
 70
     5
 71
     0
 72
     2
 73
     0
 90
        0
 40
-0.6
 41
-30.0
 62
     5
 63
     7
421
 16777215
 74
     1
 91
        4
 64
     7
 65
   257
 75
     1
175
     1
 42
1.0
 92
        0
 66
   257
 43
1.0
 76
     1
 77
     6
 78
     2
 67
     7
 79
     3
170
     0
171
     0
290
     0
174
     0
 93
        1
 44
0.0
173
     0
291
     0
 45
0.0
1001
ACAD
1000
AcDbSavedByObjectVersion
1070
     0
  0
VISUALSTYLE
  5
D6
102
{ACAD_XDICTIONARY
360
3D3
102
}
102
{ACAD_REACTORS
330
C3
102
}
330
C3
100
AcDbVisualStyle
  2
X-Ray
 70
    25
 71
     2
 72
     2
 73
     1
 90
        1
 40
0.5
 41
-30.0
 62
     5
 63
     7
421
 16777215
 74
     1
 91
        0
 64
     7
 65
   257
 75
     1
175
     1
 42
1.0
 92
        8
 66
     7
 43
1.0
 76
     1
 77
     6
 78
     2
 67
     7
 79
     3
170
     0
171
     0
290
     0
174
     0
 93
       13
 44
0.0
173
     0
291
     0
 45
0.0
1001
ACAD
1000
AcDbSavedByObjectVersion
1070
     0
  0
DICTIONARYVAR
  5
3A7
102
{ACAD_REACTORS
330
3A1
102
}
330
3A1
100
DictionaryVariables
280
     0
  1
1:1
  0
DICTIONARYVAR
  5
3A3
102
{ACAD_REACTORS
330
3A1
102
}
330
3A1
100
DictionaryVariables
280
     0
  1
STANDARD
  0
DICTIONARYVAR
  5
3A2
102
{ACAD_REACTORS
330
3A1
102
}
330
3A1
100
DictionaryVariables
280
     0
  1
STANDARD
  0
DICTIONARYVAR
  5
3A4
102
{ACAD_REACTORS
330
3A1
102
}
330
3A1
100
DictionaryVariables
280
     0
  1
Imperial24
  0
DICTIONARYVAR
  5
3A5
102
{ACAD_REACTORS
330
3A1
102
}
330
3A1
100
DictionaryVariables
280
     0
  1
Imperial24
  0
DICTIONARYVAR
  5
3A9
102
{ACAD_REACTORS
330
3A1
102
}
330
3A1
100
DictionaryVariables
280
     0
  1
1
  0
DICTIONARYVAR
  5
3AA
102
{ACAD_REACTORS
330
3A1
102
}
330
3A1
100
DictionaryVariables
280
     0
  1
15
  0
DICTIONARYVAR
  5
3A8
102
{ACAD_REACTORS
330
3A1
102
}
330
3A1
100
DictionaryVariables
280
     0
  1
0
  0
DICTIONARYVAR
  5
3A6
102
{ACAD_REACTORS
330
3A1
102
}
330
3A1
100
DictionaryVariables
280
     0
  1
0
  0
DICTIONARYVAR
  5
3AB
102
{ACAD_REACTORS
330
3A1
102
}
330
3A1
100
DictionaryVariables
280
     0
  1
2
  0
DICTIONARY
  5
3E4
330
F6
100
AcDbDictionary
280
     1
281
     1
  3
ACAD_XREC_ROUNDTRIP
360
3E5
  0
DICTIONARY
  5
B4
330
B3
100
AcDbDictionary
280
     1
281
     1
  3
BUMPTILE
360
B6
  3
DIFFUSETILE
360
B5
  3
OPACITYTILE
360
B9
  3
REFLECTIONTILE
360
B8
  3
REFRACTIONTILE
360
BA
  3
SPECULARTILE
360
B7
  0
DICTIONARY
  5
AC
330
AB
100
AcDbDictionary
280
     1
281
     1
  3
BUMPTILE
360
AE
  3
DIFFUSETILE
360
AD
  3
OPACITYTILE
360
B1
  3
REFLECTIONTILE
360
B0
  3
REFRACTIONTILE
360
B2
  3
SPECULARTILE
360
AF
  0
DICTIONARY
  5
BC
330
BB
100
AcDbDictionary
280
     1
281
     1
  3
BUMPTILE
360
BE
  3
DIFFUSETILE
360
BD
  3
OPACITYTILE
360
C1
  3
REFLECTIONTILE
360
C0
  3
REFRACTIONTILE
360
C2
  3
SPECULARTILE
360
BF
  0
DICTIONARY
  5
3E0
330
F2
100
AcDbDictionary
280
     1
281
     1
  3
ACAD_XREC_ROUNDTRIP
360
3E1
  0
DICTIONARY
  5
3E2
330
F4
100
AcDbDictionary
280
     1
281
     1
  3
ACAD_XREC_ROUNDTRIP
360
3E3
  0
DICTIONARY
  5
3AC
330
DE
100
AcDbDictionary
280
     1
281
     1
  3
ACAD_ROUNDTRIP_2008_TABLESTYLE_CELLSTYLEMAP
360
3AD
  0
DICTIONARY
  5
3B9
330
C9
100
AcDbDictionary
280
     1
281
     1
  3
ACAD_XREC_ROUNDTRIP
360
3BA
  0
DICTIONARY
  5
3B7
330
C8
100
AcDbDictionary
280
     1
281
     1
  3
ACAD_XREC_ROUNDTRIP
360
3B8
  0
DICTIONARY
  5
3C5
330
CF
100
AcDbDictionary
280
     1
281
     1
  3
ACAD_XREC_ROUNDTRIP
360
3C6
  0
DICTIONARY
  5
3CD
330
D3
100
AcDbDictionary
280
     1
281
     1
  3
ACAD_XREC_ROUNDTRIP
360
3CE
  0
DICTIONARY
  5
3BF
330
CC
100
AcDbDictionary
280
     1
281
     1
  3
ACAD_XREC_ROUNDTRIP
360
3C0
  0
DICTIONARY
  5
3C3
330
CE
100
AcDbDictionary
280
     1
281
     1
  3
ACAD_XREC_ROUNDTRIP
360
3C4
  0
DICTIONARY
  5
3DD
330
DB
100
AcDbDictionary
280
     1
281
     1
  3
ACAD_XREC_ROUNDTRIP
360
3DE
  0
DICTIONARY
  5
3CB
330
D2
100
AcDbDictionary
280
     1
281
     1
  3
ACAD_XREC_ROUNDTRIP
360
3CC
  0
DICTIONARY
  5
3AF
330
C4
100
AcDbDictionary
280
     1
281
     1
  3
ACAD_XREC_ROUNDTRIP
360
3B0
  0
DICTIONARY
  5
3B1
330
C5
100
AcDbDictionary
280
     1
281
     1
  3
ACAD_XREC_ROUNDTRIP
360
3B2
  0
DICTIONARY
  5
3B3
330
C6
100
AcDbDictionary
280
     1
281
     1
  3
ACAD_XREC_ROUNDTRIP
360
3B4
  0
DICTIONARY
  5
3B5
330
C7
100
AcDbDictionary
280
     1
281
     1
  3
ACAD_XREC_ROUNDTRIP
360
3B6
  0
DICTIONARY
  5
3BD
330
CB
100
AcDbDictionary
280
     1
281
     1
  3
ACAD_XREC_ROUNDTRIP
360
3BE
  0
DICTIONARY
  5
3D9
330
D9
100
AcDbDictionary
280
     1
281
     1
  3
ACAD_XREC_ROUNDTRIP
360
3DA
  0
DICTIONARY
  5
3C9
330
D1
100
AcDbDictionary
280
     1
281
     1
  3
ACAD_XREC_ROUNDTRIP
360
3CA
  0
DICTIONARY
  5
3DB
330
DA
100
AcDbDictionary
280
     1
281
     1
  3
ACAD_XREC_ROUNDTRIP
360
3DC
  0
DICTIONARY
  5
3C1
330
CD
100
AcDbDictionary
280
     1
281
     1
  3
ACAD_XREC_ROUNDTRIP
360
3C2
  0
DICTIONARY
  5
3D7
330
D8
100
AcDbDictionary
280
     1
281
     1
  3
ACAD_XREC_ROUNDTRIP
360
3D8
  0
DICTIONARY
  5
3D5
330
D7
100
AcDbDictionary
280
     1
281
     1
  3
ACAD_XREC_ROUNDTRIP
360
3D6
  0
DICTIONARY
  5
3CF
330
D4
100
AcDbDictionary
280
     1
281
     1
  3
ACAD_XREC_ROUNDTRIP
360
3D0
  0
DICTIONARY
  5
3D1
330
D5
100
AcDbDictionary
280
     1
281
     1
  3
ACAD_XREC_ROUNDTRIP
360
3D2
  0
DICTIONARY
  5
3C7
330
D0
100
AcDbDictionary
280
     1
281
     1
  3
ACAD_XREC_ROUNDTRIP
360
3C8
  0
DICTIONARY
  5
3BB
330
CA
100
AcDbDictionary
280
     1
281
     1
  3
ACAD_XREC_ROUNDTRIP
360
3BC
  0
DICTIONARY
  5
3D3
330
D6
100
AcDbDictionary
280
     1
281
     1
  3
ACAD_XREC_ROUNDTRIP
360
3D4
  0
XRECORD
  5
3E5
102
{ACAD_REACTORS
330
3E4
102
}
330
3E4
100
AcDbXrecord
280
     1
102
DISPLAYNAME
  1
Imperial24
102
FLAGS
 90
        0
  0
XRECORD
  5
B6
102
{ACAD_REACTORS
330
B4
102
}
330
B4
100
AcDbXrecord
280
     1
270
     1
271
     1
  0
XRECORD
  5
B5
102
{ACAD_REACTORS
330
B4
102
}
330
B4
100
AcDbXrecord
280
     1
270
     1
271
     1
  0
XRECORD
  5
B9
102
{ACAD_REACTORS
330
B4
102
}
330
B4
100
AcDbXrecord
280
     1
270
     1
271
     1
  0
XRECORD
  5
B8
102
{ACAD_REACTORS
330
B4
102
}
330
B4
100
AcDbXrecord
280
     1
270
     1
271
     1
  0
XRECORD
  5
BA
102
{ACAD_REACTORS
330
B4
102
}
330
B4
100
AcDbXrecord
280
     1
270
     1
271
     1
  0
XRECORD
  5
B7
102
{ACAD_REACTORS
330
B4
102
}
330
B4
100
AcDbXrecord
280
     1
270
     1
271
     1
  0
XRECORD
  5
AE
102
{ACAD_REACTORS
330
AC
102
}
330
AC
100
AcDbXrecord
280
     1
270
     1
271
     1
  0
XRECORD
  5
AD
102
{ACAD_REACTORS
330
AC
102
}
330
AC
100
AcDbXrecord
280
     1
270
     1
271
     1
  0
XRECORD
  5
B1
102
{ACAD_REACTORS
330
AC
102
}
330
AC
100
AcDbXrecord
280
     1
270
     1
271
     1
  0
XRECORD
  5
B0
102
{ACAD_REACTORS
330
AC
102
}
330
AC
100
AcDbXrecord
280
     1
270
     1
271
     1
  0
XRECORD
  5
B2
102
{ACAD_REACTORS
330
AC
102
}
330
AC
100
AcDbXrecord
280
     1
270
     1
271
     1
  0
XRECORD
  5
AF
102
{ACAD_REACTORS
330
AC
102
}
330
AC
100
AcDbXrecord
280
     1
270
     1
271
     1
  0
XRECORD
  5
BE
102
{ACAD_REACTORS
330
BC
102
}
330
BC
100
AcDbXrecord
280
     1
270
     1
271
     1
  0
XRECORD
  5
BD
102
{ACAD_REACTORS
330
BC
102
}
330
BC
100
AcDbXrecord
280
     1
270
     1
271
     1
  0
XRECORD
  5
C1
102
{ACAD_REACTORS
330
BC
102
}
330
BC
100
AcDbXrecord
280
     1
270
     1
271
     1
  0
XRECORD
  5
C0
102
{ACAD_REACTORS
330
BC
102
}
330
BC
100
AcDbXrecord
280
     1
270
     1
271
     1
  0
XRECORD
  5
C2
102
{ACAD_REACTORS
330
BC
102
}
330
BC
100
AcDbXrecord
280
     1
270
     1
271
     1
  0
XRECORD
  5
BF
102
{ACAD_REACTORS
330
BC
102
}
330
BC
100
AcDbXrecord
280
     1
270
     1
271
     1
  0
XRECORD
  5
3E1
102
{ACAD_REACTORS
330
3E0
102
}
330
3E0
100
AcDbXrecord
280
     1
102
ACAD_ROUNDTRIP_2012_MLEADER_STYLE
298
     1
  0
XRECORD
  5
3E3
102
{ACAD_REACTORS
330
3E2
102
}
330
3E2
100
AcDbXrecord
280
     1
102
DISPLAYNAME
  1
Imperial24
102
FLAGS
 90
        0
  0
CELLSTYLEMAP
  5
3AD
102
{ACAD_REACTORS
330
3AC
102
}
330
3AC
100
AcDbCellStyleMap
 90
        3
300
CELLSTYLE
  1
TABLEFORMAT_BEGIN
 90
        5
170
     1
 91
        0
 92
    32768
 62
   257
 93
        1
300
CONTENTFORMAT
  1
CONTENTFORMAT_BEGIN
 90
        0
 91
        0
 92
      512
 93
        0
300

 40
0.0
140
1.0
 94
        5
 62
     0
340
11
144
0.25
309
CONTENTFORMAT_END
171
     0
 94
        0
309
TABLEFORMAT_END
  1
CELLSTYLE_BEGIN
 90
        1
 91
        1
300
_TITLE
309
CELLSTYLE_END
300
CELLSTYLE
  1
TABLEFORMAT_BEGIN
 90
        5
170
     1
 91
        0
 92
        0
 62
   257
 93
        1
300
CONTENTFORMAT
  1
CONTENTFORMAT_BEGIN
 90
        0
 91
        0
 92
      512
 93
        0
300

 40
0.0
140
1.0
 94
        5
 62
     0
340
11
144
0.18
309
CONTENTFORMAT_END
171
     0
 94
        0
309
TABLEFORMAT_END
  1
CELLSTYLE_BEGIN
 90
        2
 91
        1
300
_HEADER
309
CELLSTYLE_END
300
CELLSTYLE
  1
TABLEFORMAT_BEGIN
 90
        5
170
     1
 91
        0
 92
        0
 62
   257
 93
        1
300
CONTENTFORMAT
  1
CONTENTFORMAT_BEGIN
 90
        0
 91
        0
 92
      512
 93
        0
300

 40
0.0
140
1.0
 94
        2
 62
     0
340
11
144
0.18
309
CONTENTFORMAT_END
171
     0
 94
        0
309
TABLEFORMAT_END
  1
CELLSTYLE_BEGIN
 90
        3
 91
        2
300
_DATA
309
CELLSTYLE_END
  0
XRECORD
  5
3BA
102
{ACAD_REACTORS
330
3B9
102
}
330
3B9
100
AcDbXrecord
280
     1
102
RTVSPost2010Prop28
280
     1
102
RTVSPost2010PropOp28
 70
     1
102
RTVSPost2010Prop29
280
     1
102
RTVSPost2010PropOp29
 70
     1
102
RTVSPost2010Prop30
280
     0
102
RTVSPost2010PropOp30
 70
     1
102
RTVSPost2010Prop31
280
     0
102
RTVSPost2010PropOp31
 70
     1
102
RTVSPost2010Prop32
280
     0
102
RTVSPost2010PropOp32
 70
     1
102
RTVSPost2010Prop33
280
     0
102
RTVSPost2010PropOp33
 70
     1
102
RTVSPost2010Prop34
280
     0
102
RTVSPost2010PropOp34
 70
     1
102
RTVSPost2010Prop35
280
     0
102
RTVSPost2010PropOp35
 70
     1
102
RTVSPost2010Prop36
280
     0
102
RTVSPost2010PropOp36
 70
     1
102
RTVSPost2010Prop37
 90
       50
102
RTVSPost2010PropOp37
 70
     1
102
RTVSPost2010Prop38
140
0.0
102
RTVSPost2010PropOp38
 70
     1
102
RTVSPost2010Prop39
140
1.0
102
RTVSPost2010PropOp39
 70
     1
102
RTVSPost2010Prop40
 90
        0
102
RTVSPost2010PropOp40
 70
     1
102
RTVSPost2010Prop41ColorIndex
 90
       18
102
RTVSPost2010Prop41ColorRGB
 90
        0
102
RTVSPost2010PropOp41
 70
     1
102
RTVSPost2010Prop42
 90
       50
102
RTVSPost2010PropOp42
 70
     1
102
RTVSPost2010Prop43
 90
        3
102
RTVSPost2010PropOp43
 70
     1
102
RTVSPost2010Prop44ColorIndex
 90
        5
102
RTVSPost2010Prop44ColorRGB
 90
      255
102
RTVSPost2010PropOp44
 70
     1
102
RTVSPost2010Prop45
280
     0
102
RTVSPost2010PropOp45
 70
     1
102
RTVSPost2010Prop46
 90
       50
102
RTVSPost2010PropOp46
 70
     1
102
RTVSPost2010Prop47
 90
       50
102
RTVSPost2010PropOp47
 70
     1
102
RTVSPost2010Prop48
 90
       50
102
RTVSPost2010PropOp48
 70
     1
102
RTVSPost2010Prop49
280
     0
102
RTVSPost2010PropOp49
 70
     1
102
RTVSPost2010Prop50
 90
       50
102
RTVSPost2010PropOp50
 70
     1
102
RTVSPost2010Prop51ColorIndex
 90
      256
102
RTVSPost2010Prop51ColorRGB
 90
-16777216
102
RTVSPost2010PropOp51
 70
     0
102
RTVSPost2010Prop52
140
1.0
102
RTVSPost2010PropOp52
 70
     0
102
RTVSPost2010Prop53
 90
        2
102
RTVSPost2010PropOp53
 70
     1
102
RTVSPost2010Prop54
  1
strokes_ogs.tif
102
RTVSPost2010PropOp54
 70
     1
102
RTVSPost2010Prop55
280
     0
102
RTVSPost2010PropOp55
 70
     1
102
RTVSPost2010Prop56
140
1.0
102
RTVSPost2010PropOp56
 70
     1
102
RTVSPost2010Prop57
140
1.0
102
RTVSPost2010PropOp57
 70
     1
102
RTVSPropertyOp0
 70
     1
102
RTVSPropertyOp1
 70
     1
102
RTVSPropertyOp2
 70
     1
102
RTVSPropertyOp3
 70
     1
102
RTVSPropertyOp4
 70
     1
102
RTVSPropertyOp5
 70
     1
102
RTVSPropertyOp6
 70
     1
102
RTVSPropertyOp7
 70
     1
102
RTVSPropertyOp8
 70
     1
102
RTVSPropertyOp9
 70
     1
102
RTVSPropertyOp10
 70
     1
102
RTVSPropertyOp11
 70
     1
102
RTVSPropertyOp12
 70
     1
102
RTVSPropertyOp13
 70
     1
102
RTVSPropertyOp14
 70
     1
102
RTVSPropertyOp15
 70
     1
102
RTVSPropertyOp16
 70
     1
102
RTVSPropertyOp17
 70
     1
102
RTVSPropertyOp18
 70
     1
102
RTVSPropertyOp19
 70
     1
102
RTVSPropertyOp20
 70
     1
102
RTVSPropertyOp21
 70
     1
102
RTVSPropertyOp22
 70
     1
102
RTVSPropertyOp23
 70
     1
102
RTVSPropertyOp24
 70
     1
102
RTVSPropertyOp25
 70
     1
102
RTVSPropertyOp26
 70
     1
102
RTVSPropertyOp27
 70
     1
102
RTVSPropertyOp28
 70
     1
102
RTVSPropertyOp29
 70
     1
102
RTVSPropertyOp30
 70
     1
102
RTVSPropertyOp31
 70
     1
102
RTVSPropertyOp32
 70
     1
102
RTVSPropertyOp33
 70
     1
102
RTVSPropertyOp34
 70
     1
102
RTVSPropertyOp35
 70
     1
102
RTVSPropertyOp36
 70
     1
102
RTVSPropertyOp37
 70
     1
102
RTVSPropertyOp38
 70
     1
102
RTVSPropertyOp39
 70
     1
102
RTVSPropertyOp40
 70
     1
102
RTVSPropertyOp41
 70
     1
102
RTVSPropertyOp42
 70
     1
102
RTVSPropertyOp43
 70
     1
102
RTVSPropertyOp44
 70
     1
102
RTVSPropertyOp45
 70
     1
102
RTVSPropertyOp46
 70
     1
102
RTVSPropertyOp47
 70
     1
102
RTVSPropertyOp48
 70
     1
102
RTVSPropertyOp49
 70
     1
102
RTVSPropertyOp50
 70
     1
102
RTVSPropertyOp51
 70
     0
102
RTVSPropertyOp52
 70
     0
102
RTVSPropertyOp53
 70
     1
102
RTVSPropertyOp54
 70
     1
102
RTVSPropertyOp55
 70
     1
102
RTVSPropertyOp56
 70
     1
102
RTVSPropertyOp57
 70
     1
102
RTVSPropertyOp58
 70
     1
102
RTVSPropertyOp59
 70
     1
102
RTVSPropertyOp60
 70
     1
102
RTVSPropertyOp61
 70
     1
102
RTVSPropertyOp62
 70
     1
  0
XRECORD
  5
3B8
102
{ACAD_REACTORS
330
3B7
102
}
330
3B7
100
AcDbXrecord
280
     1
102
RTVSPost2010Prop28
280
     0
102
RTVSPost2010PropOp28
 70
     1
102
RTVSPost2010Prop29
280
     1
102
RTVSPost2010PropOp29
 70
     1
102
RTVSPost2010Prop30
280
     1
102
RTVSPost2010PropOp30
 70
     1
102
RTVSPost2010Prop31
280
     0
102
RTVSPost2010PropOp31
 70
     1
102
RTVSPost2010Prop32
280
     0
102
RTVSPost2010PropOp32
 70
     1
102
RTVSPost2010Prop33
280
     0
102
RTVSPost2010PropOp33
 70
     1
102
RTVSPost2010Prop34
280
     0
102
RTVSPost2010PropOp34
 70
     1
102
RTVSPost2010Prop35
280
     0
102
RTVSPost2010PropOp35
 70
     1
102
RTVSPost2010Prop36
280
     0
102
RTVSPost2010PropOp36
 70
     1
102
RTVSPost2010Prop37
 90
       50
102
RTVSPost2010PropOp37
 70
     1
102
RTVSPost2010Prop38
140
0.0
102
RTVSPost2010PropOp38
 70
     1
102
RTVSPost2010Prop39
140
1.0
102
RTVSPost2010PropOp39
 70
     1
102
RTVSPost2010Prop40
 90
        0
102
RTVSPost2010PropOp40
 70
     1
102
RTVSPost2010Prop41ColorIndex
 90
       18
102
RTVSPost2010Prop41ColorRGB
 90
        0
102
RTVSPost2010PropOp41
 70
     1
102
RTVSPost2010Prop42
 90
       50
102
RTVSPost2010PropOp42
 70
     1
102
RTVSPost2010Prop43
 90
        3
102
RTVSPost2010PropOp43
 70
     1
102
RTVSPost2010Prop44ColorIndex
 90
        5
102
RTVSPost2010Prop44ColorRGB
 90
      255
102
RTVSPost2010PropOp44
 70
     1
102
RTVSPost2010Prop45
280
     0
102
RTVSPost2010PropOp45
 70
     1
102
RTVSPost2010Prop46
 90
       50
102
RTVSPost2010PropOp46
 70
     1
102
RTVSPost2010Prop47
 90
       50
102
RTVSPost2010PropOp47
 70
     1
102
RTVSPost2010Prop48
 90
       50
102
RTVSPost2010PropOp48
 70
     1
102
RTVSPost2010Prop49
280
     0
102
RTVSPost2010PropOp49
 70
     1
102
RTVSPost2010Prop50
 90
       50
102
RTVSPost2010PropOp50
 70
     1
102
RTVSPost2010Prop51ColorIndex
 90
      256
102
RTVSPost2010Prop51ColorRGB
 90
-16777216
102
RTVSPost2010PropOp51
 70
     0
102
RTVSPost2010Prop52
140
1.0
102
RTVSPost2010PropOp52
 70
     0
102
RTVSPost2010Prop53
 90
        2
102
RTVSPost2010PropOp53
 70
     1
102
RTVSPost2010Prop54
  1
strokes_ogs.tif
102
RTVSPost2010PropOp54
 70
     1
102
RTVSPost2010Prop55
280
     0
102
RTVSPost2010PropOp55
 70
     1
102
RTVSPost2010Prop56
140
1.0
102
RTVSPost2010PropOp56
 70
     1
102
RTVSPost2010Prop57
140
1.0
102
RTVSPost2010PropOp57
 70
     1
102
RTVSPropertyOp0
 70
     1
102
RTVSPropertyOp1
 70
     1
102
RTVSPropertyOp2
 70
     1
102
RTVSPropertyOp3
 70
     1
102
RTVSPropertyOp4
 70
     1
102
RTVSPropertyOp5
 70
     1
102
RTVSPropertyOp6
 70
     1
102
RTVSPropertyOp7
 70
     1
102
RTVSPropertyOp8
 70
     1
102
RTVSPropertyOp9
 70
     1
102
RTVSPropertyOp10
 70
     1
102
RTVSPropertyOp11
 70
     1
102
RTVSPropertyOp12
 70
     1
102
RTVSPropertyOp13
 70
     1
102
RTVSPropertyOp14
 70
     1
102
RTVSPropertyOp15
 70
     1
102
RTVSPropertyOp16
 70
     1
102
RTVSPropertyOp17
 70
     1
102
RTVSPropertyOp18
 70
     1
102
RTVSPropertyOp19
 70
     1
102
RTVSPropertyOp20
 70
     1
102
RTVSPropertyOp21
 70
     1
102
RTVSPropertyOp22
 70
     1
102
RTVSPropertyOp23
 70
     1
102
RTVSPropertyOp24
 70
     1
102
RTVSPropertyOp25
 70
     1
102
RTVSPropertyOp26
 70
     1
102
RTVSPropertyOp27
 70
     1
102
RTVSPropertyOp28
 70
     1
102
RTVSPropertyOp29
 70
     1
102
RTVSPropertyOp30
 70
     1
102
RTVSPropertyOp31
 70
     1
102
RTVSPropertyOp32
 70
     1
102
RTVSPropertyOp33
 70
     1
102
RTVSPropertyOp34
 70
     1
102
RTVSPropertyOp35
 70
     1
102
RTVSPropertyOp36
 70
     1
102
RTVSPropertyOp37
 70
     1
102
RTVSPropertyOp38
 70
     1
102
RTVSPropertyOp39
 70
     1
102
RTVSPropertyOp40
 70
     1
102
RTVSPropertyOp41
 70
     1
102
RTVSPropertyOp42
 70
     1
102
RTVSPropertyOp43
 70
     1
102
RTVSPropertyOp44
 70
     1
102
RTVSPropertyOp45
 70
     1
102
RTVSPropertyOp46
 70
     1
102
RTVSPropertyOp47
 70
     1
102
RTVSPropertyOp48
 70
     1
102
RTVSPropertyOp49
 70
     1
102
RTVSPropertyOp50
 70
     1
102
RTVSPropertyOp51
 70
     0
102
RTVSPropertyOp52
 70
     0
102
RTVSPropertyOp53
 70
     1
102
RTVSPropertyOp54
 70
     1
102
RTVSPropertyOp55
 70
     1
102
RTVSPropertyOp56
 70
     1
102
RTVSPropertyOp57
 70
     1
102
RTVSPropertyOp58
 70
     1
102
RTVSPropertyOp59
 70
     1
102
RTVSPropertyOp60
 70
     1
102
RTVSPropertyOp61
 70
     1
102
RTVSPropertyOp62
 70
     1
  0
XRECORD
  5
3C6
102
{ACAD_REACTORS
330
3C5
102
}
330
3C5
100
AcDbXrecord
280
     1
102
RTVSPost2010Prop28
280
     0
102
RTVSPost2010PropOp28
 70
     1
102
RTVSPost2010Prop29
280
     1
102
RTVSPost2010PropOp29
 70
     1
102
RTVSPost2010Prop30
280
     1
102
RTVSPost2010PropOp30
 70
     1
102
RTVSPost2010Prop31
280
     0
102
RTVSPost2010PropOp31
 70
     1
102
RTVSPost2010Prop32
280
     0
102
RTVSPost2010PropOp32
 70
     1
102
RTVSPost2010Prop33
280
     0
102
RTVSPost2010PropOp33
 70
     1
102
RTVSPost2010Prop34
280
     0
102
RTVSPost2010PropOp34
 70
     1
102
RTVSPost2010Prop35
280
     0
102
RTVSPost2010PropOp35
 70
     1
102
RTVSPost2010Prop36
280
     0
102
RTVSPost2010PropOp36
 70
     1
102
RTVSPost2010Prop37
 90
       50
102
RTVSPost2010PropOp37
 70
     1
102
RTVSPost2010Prop38
140
0.0
102
RTVSPost2010PropOp38
 70
     1
102
RTVSPost2010Prop39
140
1.0
102
RTVSPost2010PropOp39
 70
     1
102
RTVSPost2010Prop40
 90
        0
102
RTVSPost2010PropOp40
 70
     1
102
RTVSPost2010Prop41ColorIndex
 90
       18
102
RTVSPost2010Prop41ColorRGB
 90
        0
102
RTVSPost2010PropOp41
 70
     1
102
RTVSPost2010Prop42
 90
       50
102
RTVSPost2010PropOp42
 70
     1
102
RTVSPost2010Prop43
 90
        3
102
RTVSPost2010PropOp43
 70
     1
102
RTVSPost2010Prop44ColorIndex
 90
        5
102
RTVSPost2010Prop44ColorRGB
 90
      255
102
RTVSPost2010PropOp44
 70
     1
102
RTVSPost2010Prop45
280
     0
102
RTVSPost2010PropOp45
 70
     1
102
RTVSPost2010Prop46
 90
       50
102
RTVSPost2010PropOp46
 70
     1
102
RTVSPost2010Prop47
 90
       50
102
RTVSPost2010PropOp47
 70
     1
102
RTVSPost2010Prop48
 90
       50
102
RTVSPost2010PropOp48
 70
     1
102
RTVSPost2010Prop49
280
     0
102
RTVSPost2010PropOp49
 70
     1
102
RTVSPost2010Prop50
 90
       50
102
RTVSPost2010PropOp50
 70
     1
102
RTVSPost2010Prop51ColorIndex
 90
      256
102
RTVSPost2010Prop51ColorRGB
 90
-16777216
102
RTVSPost2010PropOp51
 70
     0
102
RTVSPost2010Prop52
140
1.0
102
RTVSPost2010PropOp52
 70
     0
102
RTVSPost2010Prop53
 90
        2
102
RTVSPost2010PropOp53
 70
     1
102
RTVSPost2010Prop54
  1
strokes_ogs.tif
102
RTVSPost2010PropOp54
 70
     1
102
RTVSPost2010Prop55
280
     0
102
RTVSPost2010PropOp55
 70
     1
102
RTVSPost2010Prop56
140
1.0
102
RTVSPost2010PropOp56
 70
     1
102
RTVSPost2010Prop57
140
1.0
102
RTVSPost2010PropOp57
 70
     1
102
RTVSPropertyOp0
 70
     1
102
RTVSPropertyOp1
 70
     1
102
RTVSPropertyOp2
 70
     1
102
RTVSPropertyOp3
 70
     1
102
RTVSPropertyOp4
 70
     1
102
RTVSPropertyOp5
 70
     1
102
RTVSPropertyOp6
 70
     1
102
RTVSPropertyOp7
 70
     1
102
RTVSPropertyOp8
 70
     1
102
RTVSPropertyOp9
 70
     1
102
RTVSPropertyOp10
 70
     1
102
RTVSPropertyOp11
 70
     1
102
RTVSPropertyOp12
 70
     1
102
RTVSPropertyOp13
 70
     1
102
RTVSPropertyOp14
 70
     1
102
RTVSPropertyOp15
 70
     1
102
RTVSPropertyOp16
 70
     1
102
RTVSPropertyOp17
 70
     1
102
RTVSPropertyOp18
 70
     1
102
RTVSPropertyOp19
 70
     1
102
RTVSPropertyOp20
 70
     1
102
RTVSPropertyOp21
 70
     1
102
RTVSPropertyOp22
 70
     1
102
RTVSPropertyOp23
 70
     1
102
RTVSPropertyOp24
 70
     1
102
RTVSPropertyOp25
 70
     1
102
RTVSPropertyOp26
 70
     1
102
RTVSPropertyOp27
 70
     1
102
RTVSPropertyOp28
 70
     1
102
RTVSPropertyOp29
 70
     1
102
RTVSPropertyOp30
 70
     1
102
RTVSPropertyOp31
 70
     1
102
RTVSPropertyOp32
 70
     1
102
RTVSPropertyOp33
 70
     1
102
RTVSPropertyOp34
 70
     1
102
RTVSPropertyOp35
 70
     1
102
RTVSPropertyOp36
 70
     1
102
RTVSPropertyOp37
 70
     1
102
RTVSPropertyOp38
 70
     1
102
RTVSPropertyOp39
 70
     1
102
RTVSPropertyOp40
 70
     1
102
RTVSPropertyOp41
 70
     1
102
RTVSPropertyOp42
 70
     1
102
RTVSPropertyOp43
 70
     1
102
RTVSPropertyOp44
 70
     1
102
RTVSPropertyOp45
 70
     1
102
RTVSPropertyOp46
 70
     1
102
RTVSPropertyOp47
 70
     1
102
RTVSPropertyOp48
 70
     1
102
RTVSPropertyOp49
 70
     1
102
RTVSPropertyOp50
 70
     1
102
RTVSPropertyOp51
 70
     0
102
RTVSPropertyOp52
 70
     0
102
RTVSPropertyOp53
 70
     1
102
RTVSPropertyOp54
 70
     1
102
RTVSPropertyOp55
 70
     1
102
RTVSPropertyOp56
 70
     1
102
RTVSPropertyOp57
 70
     1
102
RTVSPropertyOp58
 70
     1
102
RTVSPropertyOp59
 70
     1
102
RTVSPropertyOp60
 70
     1
102
RTVSPropertyOp61
 70
     1
102
RTVSPropertyOp62
 70
     1
  0
XRECORD
  5
3CE
102
{ACAD_REACTORS
330
3CD
102
}
330
3CD
100
AcDbXrecord
280
     1
102
RTVSPost2010Prop28
280
     0
102
RTVSPost2010PropOp28
 70
     1
102
RTVSPost2010Prop29
280
     1
102
RTVSPost2010PropOp29
 70
     1
102
RTVSPost2010Prop30
280
     1
102
RTVSPost2010PropOp30
 70
     1
102
RTVSPost2010Prop31
280
     0
102
RTVSPost2010PropOp31
 70
     1
102
RTVSPost2010Prop32
280
     0
102
RTVSPost2010PropOp32
 70
     1
102
RTVSPost2010Prop33
280
     0
102
RTVSPost2010PropOp33
 70
     1
102
RTVSPost2010Prop34
280
     0
102
RTVSPost2010PropOp34
 70
     1
102
RTVSPost2010Prop35
280
     0
102
RTVSPost2010PropOp35
 70
     1
102
RTVSPost2010Prop36
280
     0
102
RTVSPost2010PropOp36
 70
     1
102
RTVSPost2010Prop37
 90
       50
102
RTVSPost2010PropOp37
 70
     1
102
RTVSPost2010Prop38
140
0.0
102
RTVSPost2010PropOp38
 70
     1
102
RTVSPost2010Prop39
140
1.0
102
RTVSPost2010PropOp39
 70
     1
102
RTVSPost2010Prop40
 90
        0
102
RTVSPost2010PropOp40
 70
     1
102
RTVSPost2010Prop41ColorIndex
 90
       18
102
RTVSPost2010Prop41ColorRGB
 90
        0
102
RTVSPost2010PropOp41
 70
     1
102
RTVSPost2010Prop42
 90
       50
102
RTVSPost2010PropOp42
 70
     1
102
RTVSPost2010Prop43
 90
        3
102
RTVSPost2010PropOp43
 70
     1
102
RTVSPost2010Prop44ColorIndex
 90
        5
102
RTVSPost2010Prop44ColorRGB
 90
      255
102
RTVSPost2010PropOp44
 70
     1
102
RTVSPost2010Prop45
280
     0
102
RTVSPost2010PropOp45
 70
     1
102
RTVSPost2010Prop46
 90
       50
102
RTVSPost2010PropOp46
 70
     1
102
RTVSPost2010Prop47
 90
       50
102
RTVSPost2010PropOp47
 70
     1
102
RTVSPost2010Prop48
 90
       50
102
RTVSPost2010PropOp48
 70
     1
102
RTVSPost2010Prop49
280
     0
102
RTVSPost2010PropOp49
 70
     1
102
RTVSPost2010Prop50
 90
       50
102
RTVSPost2010PropOp50
 70
     1
102
RTVSPost2010Prop51ColorIndex
 90
      256
102
RTVSPost2010Prop51ColorRGB
 90
-16777216
102
RTVSPost2010PropOp51
 70
     0
102
RTVSPost2010Prop52
140
1.0
102
RTVSPost2010PropOp52
 70
     0
102
RTVSPost2010Prop53
 90
        2
102
RTVSPost2010PropOp53
 70
     1
102
RTVSPost2010Prop54
  1
strokes_ogs.tif
102
RTVSPost2010PropOp54
 70
     1
102
RTVSPost2010Prop55
280
     0
102
RTVSPost2010PropOp55
 70
     1
102
RTVSPost2010Prop56
140
1.0
102
RTVSPost2010PropOp56
 70
     1
102
RTVSPost2010Prop57
140
1.0
102
RTVSPost2010PropOp57
 70
     1
102
RTVSPropertyOp0
 70
     1
102
RTVSPropertyOp1
 70
     1
102
RTVSPropertyOp2
 70
     1
102
RTVSPropertyOp3
 70
     1
102
RTVSPropertyOp4
 70
     1
102
RTVSPropertyOp5
 70
     1
102
RTVSPropertyOp6
 70
     1
102
RTVSPropertyOp7
 70
     1
102
RTVSPropertyOp8
 70
     1
102
RTVSPropertyOp9
 70
     1
102
RTVSPropertyOp10
 70
     1
102
RTVSPropertyOp11
 70
     1
102
RTVSPropertyOp12
 70
     1
102
RTVSPropertyOp13
 70
     1
102
RTVSPropertyOp14
 70
     1
102
RTVSPropertyOp15
 70
     1
102
RTVSPropertyOp16
 70
     1
102
RTVSPropertyOp17
 70
     1
102
RTVSPropertyOp18
 70
     1
102
RTVSPropertyOp19
 70
     1
102
RTVSPropertyOp20
 70
     1
102
RTVSPropertyOp21
 70
     1
102
RTVSPropertyOp22
 70
     1
102
RTVSPropertyOp23
 70
     1
102
RTVSPropertyOp24
 70
     1
102
RTVSPropertyOp25
 70
     1
102
RTVSPropertyOp26
 70
     1
102
RTVSPropertyOp27
 70
     1
102
RTVSPropertyOp28
 70
     1
102
RTVSPropertyOp29
 70
     1
102
RTVSPropertyOp30
 70
     1
102
RTVSPropertyOp31
 70
     1
102
RTVSPropertyOp32
 70
     1
102
RTVSPropertyOp33
 70
     1
102
RTVSPropertyOp34
 70
     1
102
RTVSPropertyOp35
 70
     1
102
RTVSPropertyOp36
 70
     1
102
RTVSPropertyOp37
 70
     1
102
RTVSPropertyOp38
 70
     1
102
RTVSPropertyOp39
 70
     1
102
RTVSPropertyOp40
 70
     1
102
RTVSPropertyOp41
 70
     1
102
RTVSPropertyOp42
 70
     1
102
RTVSPropertyOp43
 70
     1
102
RTVSPropertyOp44
 70
     1
102
RTVSPropertyOp45
 70
     1
102
RTVSPropertyOp46
 70
     1
102
RTVSPropertyOp47
 70
     1
102
RTVSPropertyOp48
 70
     1
102
RTVSPropertyOp49
 70
     1
102
RTVSPropertyOp50
 70
     1
102
RTVSPropertyOp51
 70
     0
102
RTVSPropertyOp52
 70
     0
102
RTVSPropertyOp53
 70
     1
102
RTVSPropertyOp54
 70
     1
102
RTVSPropertyOp55
 70
     1
102
RTVSPropertyOp56
 70
     1
102
RTVSPropertyOp57
 70
     1
102
RTVSPropertyOp58
 70
     1
102
RTVSPropertyOp59
 70
     1
102
RTVSPropertyOp60
 70
     1
102
RTVSPropertyOp61
 70
     1
102
RTVSPropertyOp62
 70
     1
  0
XRECORD
  5
3C0
102
{ACAD_REACTORS
330
3BF
102
}
330
3BF
100
AcDbXrecord
280
     1
102
RTVSPost2010Prop28
280
     0
102
RTVSPost2010PropOp28
 70
     1
102
RTVSPost2010Prop29
280
     1
102
RTVSPost2010PropOp29
 70
     1
102
RTVSPost2010Prop30
280
     1
102
RTVSPost2010PropOp30
 70
     1
102
RTVSPost2010Prop31
280
     0
102
RTVSPost2010PropOp31
 70
     1
102
RTVSPost2010Prop32
280
     0
102
RTVSPost2010PropOp32
 70
     1
102
RTVSPost2010Prop33
280
     0
102
RTVSPost2010PropOp33
 70
     1
102
RTVSPost2010Prop34
280
     0
102
RTVSPost2010PropOp34
 70
     1
102
RTVSPost2010Prop35
280
     0
102
RTVSPost2010PropOp35
 70
     1
102
RTVSPost2010Prop36
280
     0
102
RTVSPost2010PropOp36
 70
     1
102
RTVSPost2010Prop37
 90
       50
102
RTVSPost2010PropOp37
 70
     1
102
RTVSPost2010Prop38
140
0.0
102
RTVSPost2010PropOp38
 70
     1
102
RTVSPost2010Prop39
140
1.0
102
RTVSPost2010PropOp39
 70
     1
102
RTVSPost2010Prop40
 90
        0
102
RTVSPost2010PropOp40
 70
     1
102
RTVSPost2010Prop41ColorIndex
 90
       18
102
RTVSPost2010Prop41ColorRGB
 90
        0
102
RTVSPost2010PropOp41
 70
     1
102
RTVSPost2010Prop42
 90
       50
102
RTVSPost2010PropOp42
 70
     1
102
RTVSPost2010Prop43
 90
        3
102
RTVSPost2010PropOp43
 70
     1
102
RTVSPost2010Prop44ColorIndex
 90
        5
102
RTVSPost2010Prop44ColorRGB
 90
      255
102
RTVSPost2010PropOp44
 70
     1
102
RTVSPost2010Prop45
280
     0
102
RTVSPost2010PropOp45
 70
     1
102
RTVSPost2010Prop46
 90
       50
102
RTVSPost2010PropOp46
 70
     1
102
RTVSPost2010Prop47
 90
       50
102
RTVSPost2010PropOp47
 70
     1
102
RTVSPost2010Prop48
 90
       50
102
RTVSPost2010PropOp48
 70
     1
102
RTVSPost2010Prop49
280
     0
102
RTVSPost2010PropOp49
 70
     1
102
RTVSPost2010Prop50
 90
       50
102
RTVSPost2010PropOp50
 70
     1
102
RTVSPost2010Prop51ColorIndex
 90
      256
102
RTVSPost2010Prop51ColorRGB
 90
-16777216
102
RTVSPost2010PropOp51
 70
     0
102
RTVSPost2010Prop52
140
1.0
102
RTVSPost2010PropOp52
 70
     0
102
RTVSPost2010Prop53
 90
        2
102
RTVSPost2010PropOp53
 70
     1
102
RTVSPost2010Prop54
  1
strokes_ogs.tif
102
RTVSPost2010PropOp54
 70
     1
102
RTVSPost2010Prop55
280
     0
102
RTVSPost2010PropOp55
 70
     1
102
RTVSPost2010Prop56
140
1.0
102
RTVSPost2010PropOp56
 70
     1
102
RTVSPost2010Prop57
140
1.0
102
RTVSPost2010PropOp57
 70
     1
102
RTVSPropertyOp0
 70
     1
102
RTVSPropertyOp1
 70
     1
102
RTVSPropertyOp2
 70
     1
102
RTVSPropertyOp3
 70
     1
102
RTVSPropertyOp4
 70
     1
102
RTVSPropertyOp5
 70
     1
102
RTVSPropertyOp6
 70
     1
102
RTVSPropertyOp7
 70
     1
102
RTVSPropertyOp8
 70
     1
102
RTVSPropertyOp9
 70
     1
102
RTVSPropertyOp10
 70
     1
102
RTVSPropertyOp11
 70
     1
102
RTVSPropertyOp12
 70
     1
102
RTVSPropertyOp13
 70
     1
102
RTVSPropertyOp14
 70
     1
102
RTVSPropertyOp15
 70
     1
102
RTVSPropertyOp16
 70
     1
102
RTVSPropertyOp17
 70
     1
102
RTVSPropertyOp18
 70
     1
102
RTVSPropertyOp19
 70
     1
102
RTVSPropertyOp20
 70
     1
102
RTVSPropertyOp21
 70
     1
102
RTVSPropertyOp22
 70
     1
102
RTVSPropertyOp23
 70
     1
102
RTVSPropertyOp24
 70
     1
102
RTVSPropertyOp25
 70
     1
102
RTVSPropertyOp26
 70
     1
102
RTVSPropertyOp27
 70
     1
102
RTVSPropertyOp28
 70
     1
102
RTVSPropertyOp29
 70
     1
102
RTVSPropertyOp30
 70
     1
102
RTVSPropertyOp31
 70
     1
102
RTVSPropertyOp32
 70
     1
102
RTVSPropertyOp33
 70
     1
102
RTVSPropertyOp34
 70
     1
102
RTVSPropertyOp35
 70
     1
102
RTVSPropertyOp36
 70
     1
102
RTVSPropertyOp37
 70
     1
102
RTVSPropertyOp38
 70
     1
102
RTVSPropertyOp39
 70
     1
102
RTVSPropertyOp40
 70
     1
102
RTVSPropertyOp41
 70
     1
102
RTVSPropertyOp42
 70
     1
102
RTVSPropertyOp43
 70
     1
102
RTVSPropertyOp44
 70
     1
102
RTVSPropertyOp45
 70
     1
102
RTVSPropertyOp46
 70
     1
102
RTVSPropertyOp47
 70
     1
102
RTVSPropertyOp48
 70
     1
102
RTVSPropertyOp49
 70
     1
102
RTVSPropertyOp50
 70
     1
102
RTVSPropertyOp51
 70
     0
102
RTVSPropertyOp52
 70
     0
102
RTVSPropertyOp53
 70
     1
102
RTVSPropertyOp54
 70
     1
102
RTVSPropertyOp55
 70
     1
102
RTVSPropertyOp56
 70
     1
102
RTVSPropertyOp57
 70
     1
102
RTVSPropertyOp58
 70
     1
102
RTVSPropertyOp59
 70
     1
102
RTVSPropertyOp60
 70
     1
102
RTVSPropertyOp61
 70
     1
102
RTVSPropertyOp62
 70
     1
  0
XRECORD
  5
3C4
102
{ACAD_REACTORS
330
3C3
102
}
330
3C3
100
AcDbXrecord
280
     1
102
RTVSPost2010Prop28
280
     0
102
RTVSPost2010PropOp28
 70
     1
102
RTVSPost2010Prop29
280
     1
102
RTVSPost2010PropOp29
 70
     1
102
RTVSPost2010Prop30
280
     1
102
RTVSPost2010PropOp30
 70
     1
102
RTVSPost2010Prop31
280
     0
102
RTVSPost2010PropOp31
 70
     1
102
RTVSPost2010Prop32
280
     0
102
RTVSPost2010PropOp32
 70
     1
102
RTVSPost2010Prop33
280
     0
102
RTVSPost2010PropOp33
 70
     1
102
RTVSPost2010Prop34
280
     0
102
RTVSPost2010PropOp34
 70
     1
102
RTVSPost2010Prop35
280
     0
102
RTVSPost2010PropOp35
 70
     1
102
RTVSPost2010Prop36
280
     0
102
RTVSPost2010PropOp36
 70
     1
102
RTVSPost2010Prop37
 90
       50
102
RTVSPost2010PropOp37
 70
     1
102
RTVSPost2010Prop38
140
0.0
102
RTVSPost2010PropOp38
 70
     1
102
RTVSPost2010Prop39
140
1.0
102
RTVSPost2010PropOp39
 70
     1
102
RTVSPost2010Prop40
 90
        0
102
RTVSPost2010PropOp40
 70
     1
102
RTVSPost2010Prop41ColorIndex
 90
       18
102
RTVSPost2010Prop41ColorRGB
 90
        0
102
RTVSPost2010PropOp41
 70
     1
102
RTVSPost2010Prop42
 90
       50
102
RTVSPost2010PropOp42
 70
     1
102
RTVSPost2010Prop43
 90
        3
102
RTVSPost2010PropOp43
 70
     1
102
RTVSPost2010Prop44ColorIndex
 90
        5
102
RTVSPost2010Prop44ColorRGB
 90
      255
102
RTVSPost2010PropOp44
 70
     1
102
RTVSPost2010Prop45
280
     0
102
RTVSPost2010PropOp45
 70
     1
102
RTVSPost2010Prop46
 90
       50
102
RTVSPost2010PropOp46
 70
     1
102
RTVSPost2010Prop47
 90
       50
102
RTVSPost2010PropOp47
 70
     1
102
RTVSPost2010Prop48
 90
       50
102
RTVSPost2010PropOp48
 70
     1
102
RTVSPost2010Prop49
280
     0
102
RTVSPost2010PropOp49
 70
     1
102
RTVSPost2010Prop50
 90
       50
102
RTVSPost2010PropOp50
 70
     1
102
RTVSPost2010Prop51ColorIndex
 90
      256
102
RTVSPost2010Prop51ColorRGB
 90
-16777216
102
RTVSPost2010PropOp51
 70
     0
102
RTVSPost2010Prop52
140
1.0
102
RTVSPost2010PropOp52
 70
     0
102
RTVSPost2010Prop53
 90
        2
102
RTVSPost2010PropOp53
 70
     1
102
RTVSPost2010Prop54
  1
strokes_ogs.tif
102
RTVSPost2010PropOp54
 70
     1
102
RTVSPost2010Prop55
280
     0
102
RTVSPost2010PropOp55
 70
     1
102
RTVSPost2010Prop56
140
1.0
102
RTVSPost2010PropOp56
 70
     1
102
RTVSPost2010Prop57
140
1.0
102
RTVSPost2010PropOp57
 70
     1
102
RTVSPropertyOp0
 70
     1
102
RTVSPropertyOp1
 70
     1
102
RTVSPropertyOp2
 70
     1
102
RTVSPropertyOp3
 70
     1
102
RTVSPropertyOp4
 70
     1
102
RTVSPropertyOp5
 70
     1
102
RTVSPropertyOp6
 70
     1
102
RTVSPropertyOp7
 70
     1
102
RTVSPropertyOp8
 70
     1
102
RTVSPropertyOp9
 70
     1
102
RTVSPropertyOp10
 70
     1
102
RTVSPropertyOp11
 70
     1
102
RTVSPropertyOp12
 70
     1
102
RTVSPropertyOp13
 70
     1
102
RTVSPropertyOp14
 70
     1
102
RTVSPropertyOp15
 70
     1
102
RTVSPropertyOp16
 70
     1
102
RTVSPropertyOp17
 70
     1
102
RTVSPropertyOp18
 70
     1
102
RTVSPropertyOp19
 70
     1
102
RTVSPropertyOp20
 70
     1
102
RTVSPropertyOp21
 70
     1
102
RTVSPropertyOp22
 70
     1
102
RTVSPropertyOp23
 70
     1
102
RTVSPropertyOp24
 70
     1
102
RTVSPropertyOp25
 70
     1
102
RTVSPropertyOp26
 70
     1
102
RTVSPropertyOp27
 70
     1
102
RTVSPropertyOp28
 70
     1
102
RTVSPropertyOp29
 70
     1
102
RTVSPropertyOp30
 70
     1
102
RTVSPropertyOp31
 70
     1
102
RTVSPropertyOp32
 70
     1
102
RTVSPropertyOp33
 70
     1
102
RTVSPropertyOp34
 70
     1
102
RTVSPropertyOp35
 70
     1
102
RTVSPropertyOp36
 70
     1
102
RTVSPropertyOp37
 70
     1
102
RTVSPropertyOp38
 70
     1
102
RTVSPropertyOp39
 70
     1
102
RTVSPropertyOp40
 70
     1
102
RTVSPropertyOp41
 70
     1
102
RTVSPropertyOp42
 70
     1
102
RTVSPropertyOp43
 70
     1
102
RTVSPropertyOp44
 70
     1
102
RTVSPropertyOp45
 70
     1
102
RTVSPropertyOp46
 70
     1
102
RTVSPropertyOp47
 70
     1
102
RTVSPropertyOp48
 70
     1
102
RTVSPropertyOp49
 70
     1
102
RTVSPropertyOp50
 70
     1
102
RTVSPropertyOp51
 70
     0
102
RTVSPropertyOp52
 70
     0
102
RTVSPropertyOp53
 70
     1
102
RTVSPropertyOp54
 70
     1
102
RTVSPropertyOp55
 70
     1
102
RTVSPropertyOp56
 70
     1
102
RTVSPropertyOp57
 70
     1
102
RTVSPropertyOp58
 70
     1
102
RTVSPropertyOp59
 70
     1
102
RTVSPropertyOp60
 70
     1
102
RTVSPropertyOp61
 70
     1
102
RTVSPropertyOp62
 70
     1
  0
XRECORD
  5
3DE
102
{ACAD_REACTORS
330
3DD
102
}
330
3DD
100
AcDbXrecord
280
     1
102
RTVSPost2010Prop28
280
     0
102
RTVSPost2010PropOp28
 70
     0
102
RTVSPost2010Prop29
280
     1
102
RTVSPost2010PropOp29
 70
     0
102
RTVSPost2010Prop30
280
     1
102
RTVSPost2010PropOp30
 70
     0
102
RTVSPost2010Prop31
280
     0
102
RTVSPost2010PropOp31
 70
     0
102
RTVSPost2010Prop32
280
     0
102
RTVSPost2010PropOp32
 70
     0
102
RTVSPost2010Prop33
280
     0
102
RTVSPost2010PropOp33
 70
     0
102
RTVSPost2010Prop34
280
     0
102
RTVSPost2010PropOp34
 70
     0
102
RTVSPost2010Prop35
280
     0
102
RTVSPost2010PropOp35
 70
     0
102
RTVSPost2010Prop36
280
     0
102
RTVSPost2010PropOp36
 70
     0
102
RTVSPost2010Prop37
 90
       50
102
RTVSPost2010PropOp37
 70
     0
102
RTVSPost2010Prop38
140
0.0
102
RTVSPost2010PropOp38
 70
     0
102
RTVSPost2010Prop39
140
1.0
102
RTVSPost2010PropOp39
 70
     0
102
RTVSPost2010Prop40
 90
        0
102
RTVSPost2010PropOp40
 70
     0
102
RTVSPost2010Prop41ColorIndex
 90
       18
102
RTVSPost2010Prop41ColorRGB
 90
        0
102
RTVSPost2010PropOp41
 70
     0
102
RTVSPost2010Prop42
 90
       50
102
RTVSPost2010PropOp42
 70
     0
102
RTVSPost2010Prop43
 90
        3
102
RTVSPost2010PropOp43
 70
     0
102
RTVSPost2010Prop44ColorIndex
 90
        5
102
RTVSPost2010Prop44ColorRGB
 90
      255
102
RTVSPost2010PropOp44
 70
     0
102
RTVSPost2010Prop45
280
     0
102
RTVSPost2010PropOp45
 70
     0
102
RTVSPost2010Prop46
 90
       50
102
RTVSPost2010PropOp46
 70
     0
102
RTVSPost2010Prop47
 90
       50
102
RTVSPost2010PropOp47
 70
     0
102
RTVSPost2010Prop48
 90
       50
102
RTVSPost2010PropOp48
 70
     0
102
RTVSPost2010Prop49
280
     0
102
RTVSPost2010PropOp49
 70
     0
102
RTVSPost2010Prop50
 90
       50
102
RTVSPost2010PropOp50
 70
     0
102
RTVSPost2010Prop51ColorIndex
 90
      256
102
RTVSPost2010Prop51ColorRGB
 90
-16777216
102
RTVSPost2010PropOp51
 70
     0
102
RTVSPost2010Prop52
140
1.0
102
RTVSPost2010PropOp52
 70
     0
102
RTVSPost2010Prop53
 90
        2
102
RTVSPost2010PropOp53
 70
     0
102
RTVSPost2010Prop54
  1
strokes_ogs.tif
102
RTVSPost2010PropOp54
 70
     0
102
RTVSPost2010Prop55
280
     0
102
RTVSPost2010PropOp55
 70
     0
102
RTVSPost2010Prop56
140
1.0
102
RTVSPost2010PropOp56
 70
     0
102
RTVSPost2010Prop57
140
1.0
102
RTVSPost2010PropOp57
 70
     0
102
RTVSPropertyOp0
 70
     0
102
RTVSPropertyOp1
 70
     0
102
RTVSPropertyOp2
 70
     0
102
RTVSPropertyOp3
 70
     0
102
RTVSPropertyOp4
 70
     0
102
RTVSPropertyOp5
 70
     0
102
RTVSPropertyOp6
 70
     0
102
RTVSPropertyOp7
 70
     0
102
RTVSPropertyOp8
 70
     0
102
RTVSPropertyOp9
 70
     0
102
RTVSPropertyOp10
 70
     0
102
RTVSPropertyOp11
 70
     0
102
RTVSPropertyOp12
 70
     0
102
RTVSPropertyOp13
 70
     0
102
RTVSPropertyOp14
 70
     2
102
RTVSPropertyOp15
 70
     0
102
RTVSPropertyOp16
 70
     0
102
RTVSPropertyOp17
 70
     0
102
RTVSPropertyOp18
 70
     0
102
RTVSPropertyOp19
 70
     0
102
RTVSPropertyOp20
 70
     0
102
RTVSPropertyOp21
 70
     0
102
RTVSPropertyOp22
 70
     0
102
RTVSPropertyOp23
 70
     0
102
RTVSPropertyOp24
 70
     0
102
RTVSPropertyOp25
 70
     0
102
RTVSPropertyOp26
 70
     0
102
RTVSPropertyOp27
 70
     0
102
RTVSPropertyOp28
 70
     0
102
RTVSPropertyOp29
 70
     0
102
RTVSPropertyOp30
 70
     0
102
RTVSPropertyOp31
 70
     0
102
RTVSPropertyOp32
 70
     0
102
RTVSPropertyOp33
 70
     0
102
RTVSPropertyOp34
 70
     0
102
RTVSPropertyOp35
 70
     0
102
RTVSPropertyOp36
 70
     0
102
RTVSPropertyOp37
 70
     0
102
RTVSPropertyOp38
 70
     0
102
RTVSPropertyOp39
 70
     0
102
RTVSPropertyOp40
 70
     0
102
RTVSPropertyOp41
 70
     0
102
RTVSPropertyOp42
 70
     0
102
RTVSPropertyOp43
 70
     0
102
RTVSPropertyOp44
 70
     0
102
RTVSPropertyOp45
 70
     0
102
RTVSPropertyOp46
 70
     0
102
RTVSPropertyOp47
 70
     0
102
RTVSPropertyOp48
 70
     0
102
RTVSPropertyOp49
 70
     0
102
RTVSPropertyOp50
 70
     0
102
RTVSPropertyOp51
 70
     0
102
RTVSPropertyOp52
 70
     0
102
RTVSPropertyOp53
 70
     0
102
RTVSPropertyOp54
 70
     0
102
RTVSPropertyOp55
 70
     0
102
RTVSPropertyOp56
 70
     0
102
RTVSPropertyOp57
 70
     0
102
RTVSPropertyOp58
 70
     0
102
RTVSPropertyOp59
 70
     0
102
RTVSPropertyOp60
 70
     0
102
RTVSPropertyOp61
 70
     0
102
RTVSPropertyOp62
 70
     0
  0
XRECORD
  5
3CC
102
{ACAD_REACTORS
330
3CB
102
}
330
3CB
100
AcDbXrecord
280
     1
102
RTVSPost2010Prop28
280
     0
102
RTVSPost2010PropOp28
 70
     1
102
RTVSPost2010Prop29
280
     1
102
RTVSPost2010PropOp29
 70
     1
102
RTVSPost2010Prop30
280
     1
102
RTVSPost2010PropOp30
 70
     1
102
RTVSPost2010Prop31
280
     0
102
RTVSPost2010PropOp31
 70
     1
102
RTVSPost2010Prop32
280
     0
102
RTVSPost2010PropOp32
 70
     1
102
RTVSPost2010Prop33
280
     0
102
RTVSPost2010PropOp33
 70
     1
102
RTVSPost2010Prop34
280
     0
102
RTVSPost2010PropOp34
 70
     1
102
RTVSPost2010Prop35
280
     0
102
RTVSPost2010PropOp35
 70
     1
102
RTVSPost2010Prop36
280
     0
102
RTVSPost2010PropOp36
 70
     1
102
RTVSPost2010Prop37
 90
       50
102
RTVSPost2010PropOp37
 70
     1
102
RTVSPost2010Prop38
140
0.0
102
RTVSPost2010PropOp38
 70
     1
102
RTVSPost2010Prop39
140
1.0
102
RTVSPost2010PropOp39
 70
     1
102
RTVSPost2010Prop40
 90
        0
102
RTVSPost2010PropOp40
 70
     1
102
RTVSPost2010Prop41ColorIndex
 90
       18
102
RTVSPost2010Prop41ColorRGB
 90
        0
102
RTVSPost2010PropOp41
 70
     1
102
RTVSPost2010Prop42
 90
       50
102
RTVSPost2010PropOp42
 70
     1
102
RTVSPost2010Prop43
 90
        3
102
RTVSPost2010PropOp43
 70
     1
102
RTVSPost2010Prop44ColorIndex
 90
        5
102
RTVSPost2010Prop44ColorRGB
 90
      255
102
RTVSPost2010PropOp44
 70
     1
102
RTVSPost2010Prop45
280
     0
102
RTVSPost2010PropOp45
 70
     1
102
RTVSPost2010Prop46
 90
       50
102
RTVSPost2010PropOp46
 70
     1
102
RTVSPost2010Prop47
 90
       50
102
RTVSPost2010PropOp47
 70
     1
102
RTVSPost2010Prop48
 90
       50
102
RTVSPost2010PropOp48
 70
     1
102
RTVSPost2010Prop49
280
     0
102
RTVSPost2010PropOp49
 70
     1
102
RTVSPost2010Prop50
 90
       50
102
RTVSPost2010PropOp50
 70
     1
102
RTVSPost2010Prop51ColorIndex
 90
      256
102
RTVSPost2010Prop51ColorRGB
 90
-16777216
102
RTVSPost2010PropOp51
 70
     0
102
RTVSPost2010Prop52
140
1.0
102
RTVSPost2010PropOp52
 70
     0
102
RTVSPost2010Prop53
 90
        2
102
RTVSPost2010PropOp53
 70
     1
102
RTVSPost2010Prop54
  1
strokes_ogs.tif
102
RTVSPost2010PropOp54
 70
     1
102
RTVSPost2010Prop55
280
     0
102
RTVSPost2010PropOp55
 70
     1
102
RTVSPost2010Prop56
140
1.0
102
RTVSPost2010PropOp56
 70
     1
102
RTVSPost2010Prop57
140
1.0
102
RTVSPost2010PropOp57
 70
     1
102
RTVSPropertyOp0
 70
     1
102
RTVSPropertyOp1
 70
     1
102
RTVSPropertyOp2
 70
     1
102
RTVSPropertyOp3
 70
     1
102
RTVSPropertyOp4
 70
     1
102
RTVSPropertyOp5
 70
     1
102
RTVSPropertyOp6
 70
     1
102
RTVSPropertyOp7
 70
     1
102
RTVSPropertyOp8
 70
     1
102
RTVSPropertyOp9
 70
     1
102
RTVSPropertyOp10
 70
     1
102
RTVSPropertyOp11
 70
     1
102
RTVSPropertyOp12
 70
     1
102
RTVSPropertyOp13
 70
     1
102
RTVSPropertyOp14
 70
     1
102
RTVSPropertyOp15
 70
     1
102
RTVSPropertyOp16
 70
     1
102
RTVSPropertyOp17
 70
     1
102
RTVSPropertyOp18
 70
     1
102
RTVSPropertyOp19
 70
     1
102
RTVSPropertyOp20
 70
     1
102
RTVSPropertyOp21
 70
     1
102
RTVSPropertyOp22
 70
     1
102
RTVSPropertyOp23
 70
     1
102
RTVSPropertyOp24
 70
     1
102
RTVSPropertyOp25
 70
     1
102
RTVSPropertyOp26
 70
     1
102
RTVSPropertyOp27
 70
     1
102
RTVSPropertyOp28
 70
     1
102
RTVSPropertyOp29
 70
     1
102
RTVSPropertyOp30
 70
     1
102
RTVSPropertyOp31
 70
     1
102
RTVSPropertyOp32
 70
     1
102
RTVSPropertyOp33
 70
     1
102
RTVSPropertyOp34
 70
     1
102
RTVSPropertyOp35
 70
     1
102
RTVSPropertyOp36
 70
     1
102
RTVSPropertyOp37
 70
     1
102
RTVSPropertyOp38
 70
     1
102
RTVSPropertyOp39
 70
     1
102
RTVSPropertyOp40
 70
     1
102
RTVSPropertyOp41
 70
     1
102
RTVSPropertyOp42
 70
     1
102
RTVSPropertyOp43
 70
     1
102
RTVSPropertyOp44
 70
     1
102
RTVSPropertyOp45
 70
     1
102
RTVSPropertyOp46
 70
     1
102
RTVSPropertyOp47
 70
     1
102
RTVSPropertyOp48
 70
     1
102
RTVSPropertyOp49
 70
     1
102
RTVSPropertyOp50
 70
     1
102
RTVSPropertyOp51
 70
     0
102
RTVSPropertyOp52
 70
     0
102
RTVSPropertyOp53
 70
     1
102
RTVSPropertyOp54
 70
     1
102
RTVSPropertyOp55
 70
     1
102
RTVSPropertyOp56
 70
     1
102
RTVSPropertyOp57
 70
     1
102
RTVSPropertyOp58
 70
     1
102
RTVSPropertyOp59
 70
     1
102
RTVSPropertyOp60
 70
     1
102
RTVSPropertyOp61
 70
     1
102
RTVSPropertyOp62
 70
     1
  0
XRECORD
  5
3B0
102
{ACAD_REACTORS
330
3AF
102
}
330
3AF
100
AcDbXrecord
280
     1
102
RTVSPost2010Prop28
280
     0
102
RTVSPost2010PropOp28
 70
     1
102
RTVSPost2010Prop29
280
     1
102
RTVSPost2010PropOp29
 70
     1
102
RTVSPost2010Prop30
280
     1
102
RTVSPost2010PropOp30
 70
     1
102
RTVSPost2010Prop31
280
     0
102
RTVSPost2010PropOp31
 70
     1
102
RTVSPost2010Prop32
280
     0
102
RTVSPost2010PropOp32
 70
     1
102
RTVSPost2010Prop33
280
     0
102
RTVSPost2010PropOp33
 70
     1
102
RTVSPost2010Prop34
280
     0
102
RTVSPost2010PropOp34
 70
     1
102
RTVSPost2010Prop35
280
     0
102
RTVSPost2010PropOp35
 70
     1
102
RTVSPost2010Prop36
280
     0
102
RTVSPost2010PropOp36
 70
     1
102
RTVSPost2010Prop37
 90
       50
102
RTVSPost2010PropOp37
 70
     1
102
RTVSPost2010Prop38
140
0.0
102
RTVSPost2010PropOp38
 70
     1
102
RTVSPost2010Prop39
140
1.0
102
RTVSPost2010PropOp39
 70
     1
102
RTVSPost2010Prop40
 90
        0
102
RTVSPost2010PropOp40
 70
     1
102
RTVSPost2010Prop41ColorIndex
 90
       18
102
RTVSPost2010Prop41ColorRGB
 90
        0
102
RTVSPost2010PropOp41
 70
     1
102
RTVSPost2010Prop42
 90
       50
102
RTVSPost2010PropOp42
 70
     1
102
RTVSPost2010Prop43
 90
        3
102
RTVSPost2010PropOp43
 70
     1
102
RTVSPost2010Prop44ColorIndex
 90
        5
102
RTVSPost2010Prop44ColorRGB
 90
      255
102
RTVSPost2010PropOp44
 70
     1
102
RTVSPost2010Prop45
280
     0
102
RTVSPost2010PropOp45
 70
     1
102
RTVSPost2010Prop46
 90
       50
102
RTVSPost2010PropOp46
 70
     1
102
RTVSPost2010Prop47
 90
       50
102
RTVSPost2010PropOp47
 70
     1
102
RTVSPost2010Prop48
 90
       50
102
RTVSPost2010PropOp48
 70
     1
102
RTVSPost2010Prop49
280
     0
102
RTVSPost2010PropOp49
 70
     1
102
RTVSPost2010Prop50
 90
       50
102
RTVSPost2010PropOp50
 70
     1
102
RTVSPost2010Prop51ColorIndex
 90
      256
102
RTVSPost2010Prop51ColorRGB
 90
-16777216
102
RTVSPost2010PropOp51
 70
     0
102
RTVSPost2010Prop52
140
1.0
102
RTVSPost2010PropOp52
 70
     0
102
RTVSPost2010Prop53
 90
        2
102
RTVSPost2010PropOp53
 70
     1
102
RTVSPost2010Prop54
  1
strokes_ogs.tif
102
RTVSPost2010PropOp54
 70
     1
102
RTVSPost2010Prop55
280
     0
102
RTVSPost2010PropOp55
 70
     1
102
RTVSPost2010Prop56
140
1.0
102
RTVSPost2010PropOp56
 70
     1
102
RTVSPost2010Prop57
140
1.0
102
RTVSPost2010PropOp57
 70
     1
102
RTVSPropertyOp0
 70
     1
102
RTVSPropertyOp1
 70
     1
102
RTVSPropertyOp2
 70
     1
102
RTVSPropertyOp3
 70
     1
102
RTVSPropertyOp4
 70
     1
102
RTVSPropertyOp5
 70
     1
102
RTVSPropertyOp6
 70
     1
102
RTVSPropertyOp7
 70
     1
102
RTVSPropertyOp8
 70
     1
102
RTVSPropertyOp9
 70
     1
102
RTVSPropertyOp10
 70
     1
102
RTVSPropertyOp11
 70
     1
102
RTVSPropertyOp12
 70
     1
102
RTVSPropertyOp13
 70
     1
102
RTVSPropertyOp14
 70
     1
102
RTVSPropertyOp15
 70
     1
102
RTVSPropertyOp16
 70
     1
102
RTVSPropertyOp17
 70
     1
102
RTVSPropertyOp18
 70
     1
102
RTVSPropertyOp19
 70
     1
102
RTVSPropertyOp20
 70
     1
102
RTVSPropertyOp21
 70
     1
102
RTVSPropertyOp22
 70
     1
102
RTVSPropertyOp23
 70
     1
102
RTVSPropertyOp24
 70
     1
102
RTVSPropertyOp25
 70
     1
102
RTVSPropertyOp26
 70
     1
102
RTVSPropertyOp27
 70
     1
102
RTVSPropertyOp28
 70
     1
102
RTVSPropertyOp29
 70
     1
102
RTVSPropertyOp30
 70
     1
102
RTVSPropertyOp31
 70
     1
102
RTVSPropertyOp32
 70
     1
102
RTVSPropertyOp33
 70
     1
102
RTVSPropertyOp34
 70
     1
102
RTVSPropertyOp35
 70
     1
102
RTVSPropertyOp36
 70
     1
102
RTVSPropertyOp37
 70
     1
102
RTVSPropertyOp38
 70
     1
102
RTVSPropertyOp39
 70
     1
102
RTVSPropertyOp40
 70
     1
102
RTVSPropertyOp41
 70
     1
102
RTVSPropertyOp42
 70
     1
102
RTVSPropertyOp43
 70
     1
102
RTVSPropertyOp44
 70
     1
102
RTVSPropertyOp45
 70
     1
102
RTVSPropertyOp46
 70
     1
102
RTVSPropertyOp47
 70
     1
102
RTVSPropertyOp48
 70
     1
102
RTVSPropertyOp49
 70
     1
102
RTVSPropertyOp50
 70
     1
102
RTVSPropertyOp51
 70
     0
102
RTVSPropertyOp52
 70
     0
102
RTVSPropertyOp53
 70
     1
102
RTVSPropertyOp54
 70
     1
102
RTVSPropertyOp55
 70
     1
102
RTVSPropertyOp56
 70
     1
102
RTVSPropertyOp57
 70
     1
102
RTVSPropertyOp58
 70
     1
102
RTVSPropertyOp59
 70
     1
102
RTVSPropertyOp60
 70
     1
102
RTVSPropertyOp61
 70
     1
102
RTVSPropertyOp62
 70
     1
  0
XRECORD
  5
3B2
102
{ACAD_REACTORS
330
3B1
102
}
330
3B1
100
AcDbXrecord
280
     1
102
RTVSPost2010Prop28
280
     0
102
RTVSPost2010PropOp28
 70
     1
102
RTVSPost2010Prop29
280
     1
102
RTVSPost2010PropOp29
 70
     1
102
RTVSPost2010Prop30
280
     1
102
RTVSPost2010PropOp30
 70
     1
102
RTVSPost2010Prop31
280
     0
102
RTVSPost2010PropOp31
 70
     1
102
RTVSPost2010Prop32
280
     0
102
RTVSPost2010PropOp32
 70
     1
102
RTVSPost2010Prop33
280
     0
102
RTVSPost2010PropOp33
 70
     1
102
RTVSPost2010Prop34
280
     0
102
RTVSPost2010PropOp34
 70
     1
102
RTVSPost2010Prop35
280
     0
102
RTVSPost2010PropOp35
 70
     1
102
RTVSPost2010Prop36
280
     0
102
RTVSPost2010PropOp36
 70
     1
102
RTVSPost2010Prop37
 90
       50
102
RTVSPost2010PropOp37
 70
     1
102
RTVSPost2010Prop38
140
0.0
102
RTVSPost2010PropOp38
 70
     1
102
RTVSPost2010Prop39
140
1.0
102
RTVSPost2010PropOp39
 70
     1
102
RTVSPost2010Prop40
 90
        0
102
RTVSPost2010PropOp40
 70
     1
102
RTVSPost2010Prop41ColorIndex
 90
       18
102
RTVSPost2010Prop41ColorRGB
 90
        0
102
RTVSPost2010PropOp41
 70
     1
102
RTVSPost2010Prop42
 90
       50
102
RTVSPost2010PropOp42
 70
     1
102
RTVSPost2010Prop43
 90
        3
102
RTVSPost2010PropOp43
 70
     1
102
RTVSPost2010Prop44ColorIndex
 90
        5
102
RTVSPost2010Prop44ColorRGB
 90
      255
102
RTVSPost2010PropOp44
 70
     1
102
RTVSPost2010Prop45
280
     0
102
RTVSPost2010PropOp45
 70
     1
102
RTVSPost2010Prop46
 90
       50
102
RTVSPost2010PropOp46
 70
     1
102
RTVSPost2010Prop47
 90
       50
102
RTVSPost2010PropOp47
 70
     1
102
RTVSPost2010Prop48
 90
       50
102
RTVSPost2010PropOp48
 70
     1
102
RTVSPost2010Prop49
280
     0
102
RTVSPost2010PropOp49
 70
     1
102
RTVSPost2010Prop50
 90
       50
102
RTVSPost2010PropOp50
 70
     1
102
RTVSPost2010Prop51ColorIndex
 90
      256
102
RTVSPost2010Prop51ColorRGB
 90
-16777216
102
RTVSPost2010PropOp51
 70
     0
102
RTVSPost2010Prop52
140
1.0
102
RTVSPost2010PropOp52
 70
     0
102
RTVSPost2010Prop53
 90
        2
102
RTVSPost2010PropOp53
 70
     1
102
RTVSPost2010Prop54
  1
strokes_ogs.tif
102
RTVSPost2010PropOp54
 70
     1
102
RTVSPost2010Prop55
280
     0
102
RTVSPost2010PropOp55
 70
     1
102
RTVSPost2010Prop56
140
1.0
102
RTVSPost2010PropOp56
 70
     1
102
RTVSPost2010Prop57
140
1.0
102
RTVSPost2010PropOp57
 70
     1
102
RTVSPropertyOp0
 70
     1
102
RTVSPropertyOp1
 70
     1
102
RTVSPropertyOp2
 70
     1
102
RTVSPropertyOp3
 70
     1
102
RTVSPropertyOp4
 70
     1
102
RTVSPropertyOp5
 70
     1
102
RTVSPropertyOp6
 70
     1
102
RTVSPropertyOp7
 70
     1
102
RTVSPropertyOp8
 70
     1
102
RTVSPropertyOp9
 70
     1
102
RTVSPropertyOp10
 70
     1
102
RTVSPropertyOp11
 70
     1
102
RTVSPropertyOp12
 70
     1
102
RTVSPropertyOp13
 70
     1
102
RTVSPropertyOp14
 70
     1
102
RTVSPropertyOp15
 70
     1
102
RTVSPropertyOp16
 70
     1
102
RTVSPropertyOp17
 70
     1
102
RTVSPropertyOp18
 70
     1
102
RTVSPropertyOp19
 70
     1
102
RTVSPropertyOp20
 70
     1
102
RTVSPropertyOp21
 70
     1
102
RTVSPropertyOp22
 70
     1
102
RTVSPropertyOp23
 70
     1
102
RTVSPropertyOp24
 70
     1
102
RTVSPropertyOp25
 70
     1
102
RTVSPropertyOp26
 70
     1
102
RTVSPropertyOp27
 70
     1
102
RTVSPropertyOp28
 70
     1
102
RTVSPropertyOp29
 70
     1
102
RTVSPropertyOp30
 70
     1
102
RTVSPropertyOp31
 70
     1
102
RTVSPropertyOp32
 70
     1
102
RTVSPropertyOp33
 70
     1
102
RTVSPropertyOp34
 70
     1
102
RTVSPropertyOp35
 70
     1
102
RTVSPropertyOp36
 70
     1
102
RTVSPropertyOp37
 70
     1
102
RTVSPropertyOp38
 70
     1
102
RTVSPropertyOp39
 70
     1
102
RTVSPropertyOp40
 70
     1
102
RTVSPropertyOp41
 70
     1
102
RTVSPropertyOp42
 70
     1
102
RTVSPropertyOp43
 70
     1
102
RTVSPropertyOp44
 70
     1
102
RTVSPropertyOp45
 70
     1
102
RTVSPropertyOp46
 70
     1
102
RTVSPropertyOp47
 70
     1
102
RTVSPropertyOp48
 70
     1
102
RTVSPropertyOp49
 70
     1
102
RTVSPropertyOp50
 70
     1
102
RTVSPropertyOp51
 70
     0
102
RTVSPropertyOp52
 70
     0
102
RTVSPropertyOp53
 70
     1
102
RTVSPropertyOp54
 70
     1
102
RTVSPropertyOp55
 70
     1
102
RTVSPropertyOp56
 70
     1
102
RTVSPropertyOp57
 70
     1
102
RTVSPropertyOp58
 70
     1
102
RTVSPropertyOp59
 70
     1
102
RTVSPropertyOp60
 70
     1
102
RTVSPropertyOp61
 70
     1
102
RTVSPropertyOp62
 70
     1
  0
XRECORD
  5
3B4
102
{ACAD_REACTORS
330
3B3
102
}
330
3B3
100
AcDbXrecord
280
     1
102
RTVSPost2010Prop28
280
     0
102
RTVSPost2010PropOp28
 70
     1
102
RTVSPost2010Prop29
280
     1
102
RTVSPost2010PropOp29
 70
     1
102
RTVSPost2010Prop30
280
     1
102
RTVSPost2010PropOp30
 70
     1
102
RTVSPost2010Prop31
280
     0
102
RTVSPost2010PropOp31
 70
     1
102
RTVSPost2010Prop32
280
     0
102
RTVSPost2010PropOp32
 70
     1
102
RTVSPost2010Prop33
280
     0
102
RTVSPost2010PropOp33
 70
     1
102
RTVSPost2010Prop34
280
     0
102
RTVSPost2010PropOp34
 70
     1
102
RTVSPost2010Prop35
280
     0
102
RTVSPost2010PropOp35
 70
     1
102
RTVSPost2010Prop36
280
     0
102
RTVSPost2010PropOp36
 70
     1
102
RTVSPost2010Prop37
 90
       50
102
RTVSPost2010PropOp37
 70
     1
102
RTVSPost2010Prop38
140
0.0
102
RTVSPost2010PropOp38
 70
     1
102
RTVSPost2010Prop39
140
1.0
102
RTVSPost2010PropOp39
 70
     1
102
RTVSPost2010Prop40
 90
        0
102
RTVSPost2010PropOp40
 70
     1
102
RTVSPost2010Prop41ColorIndex
 90
       18
102
RTVSPost2010Prop41ColorRGB
 90
        0
102
RTVSPost2010PropOp41
 70
     1
102
RTVSPost2010Prop42
 90
       50
102
RTVSPost2010PropOp42
 70
     1
102
RTVSPost2010Prop43
 90
        3
102
RTVSPost2010PropOp43
 70
     1
102
RTVSPost2010Prop44ColorIndex
 90
        5
102
RTVSPost2010Prop44ColorRGB
 90
      255
102
RTVSPost2010PropOp44
 70
     1
102
RTVSPost2010Prop45
280
     0
102
RTVSPost2010PropOp45
 70
     1
102
RTVSPost2010Prop46
 90
       50
102
RTVSPost2010PropOp46
 70
     1
102
RTVSPost2010Prop47
 90
       50
102
RTVSPost2010PropOp47
 70
     1
102
RTVSPost2010Prop48
 90
       50
102
RTVSPost2010PropOp48
 70
     1
102
RTVSPost2010Prop49
280
     0
102
RTVSPost2010PropOp49
 70
     1
102
RTVSPost2010Prop50
 90
       50
102
RTVSPost2010PropOp50
 70
     1
102
RTVSPost2010Prop51ColorIndex
 90
      256
102
RTVSPost2010Prop51ColorRGB
 90
-16777216
102
RTVSPost2010PropOp51
 70
     0
102
RTVSPost2010Prop52
140
1.0
102
RTVSPost2010PropOp52
 70
     0
102
RTVSPost2010Prop53
 90
        2
102
RTVSPost2010PropOp53
 70
     1
102
RTVSPost2010Prop54
  1
strokes_ogs.tif
102
RTVSPost2010PropOp54
 70
     1
102
RTVSPost2010Prop55
280
     0
102
RTVSPost2010PropOp55
 70
     1
102
RTVSPost2010Prop56
140
1.0
102
RTVSPost2010PropOp56
 70
     1
102
RTVSPost2010Prop57
140
1.0
102
RTVSPost2010PropOp57
 70
     1
102
RTVSPropertyOp0
 70
     1
102
RTVSPropertyOp1
 70
     1
102
RTVSPropertyOp2
 70
     1
102
RTVSPropertyOp3
 70
     1
102
RTVSPropertyOp4
 70
     1
102
RTVSPropertyOp5
 70
     1
102
RTVSPropertyOp6
 70
     1
102
RTVSPropertyOp7
 70
     1
102
RTVSPropertyOp8
 70
     1
102
RTVSPropertyOp9
 70
     1
102
RTVSPropertyOp10
 70
     1
102
RTVSPropertyOp11
 70
     1
102
RTVSPropertyOp12
 70
     1
102
RTVSPropertyOp13
 70
     1
102
RTVSPropertyOp14
 70
     1
102
RTVSPropertyOp15
 70
     1
102
RTVSPropertyOp16
 70
     1
102
RTVSPropertyOp17
 70
     1
102
RTVSPropertyOp18
 70
     1
102
RTVSPropertyOp19
 70
     1
102
RTVSPropertyOp20
 70
     1
102
RTVSPropertyOp21
 70
     1
102
RTVSPropertyOp22
 70
     1
102
RTVSPropertyOp23
 70
     1
102
RTVSPropertyOp24
 70
     1
102
RTVSPropertyOp25
 70
     1
102
RTVSPropertyOp26
 70
     1
102
RTVSPropertyOp27
 70
     1
102
RTVSPropertyOp28
 70
     1
102
RTVSPropertyOp29
 70
     1
102
RTVSPropertyOp30
 70
     1
102
RTVSPropertyOp31
 70
     1
102
RTVSPropertyOp32
 70
     1
102
RTVSPropertyOp33
 70
     1
102
RTVSPropertyOp34
 70
     1
102
RTVSPropertyOp35
 70
     1
102
RTVSPropertyOp36
 70
     1
102
RTVSPropertyOp37
 70
     1
102
RTVSPropertyOp38
 70
     1
102
RTVSPropertyOp39
 70
     1
102
RTVSPropertyOp40
 70
     1
102
RTVSPropertyOp41
 70
     1
102
RTVSPropertyOp42
 70
     1
102
RTVSPropertyOp43
 70
     1
102
RTVSPropertyOp44
 70
     1
102
RTVSPropertyOp45
 70
     1
102
RTVSPropertyOp46
 70
     1
102
RTVSPropertyOp47
 70
     1
102
RTVSPropertyOp48
 70
     1
102
RTVSPropertyOp49
 70
     1
102
RTVSPropertyOp50
 70
     1
102
RTVSPropertyOp51
 70
     0
102
RTVSPropertyOp52
 70
     0
102
RTVSPropertyOp53
 70
     1
102
RTVSPropertyOp54
 70
     1
102
RTVSPropertyOp55
 70
     1
102
RTVSPropertyOp56
 70
     1
102
RTVSPropertyOp57
 70
     1
102
RTVSPropertyOp58
 70
     1
102
RTVSPropertyOp59
 70
     1
102
RTVSPropertyOp60
 70
     1
102
RTVSPropertyOp61
 70
     1
102
RTVSPropertyOp62
 70
     1
  0
XRECORD
  5
3B6
102
{ACAD_REACTORS
330
3B5
102
}
330
3B5
100
AcDbXrecord
280
     1
102
RTVSPost2010Prop28
280
     0
102
RTVSPost2010PropOp28
 70
     1
102
RTVSPost2010Prop29
280
     1
102
RTVSPost2010PropOp29
 70
     1
102
RTVSPost2010Prop30
280
     1
102
RTVSPost2010PropOp30
 70
     1
102
RTVSPost2010Prop31
280
     0
102
RTVSPost2010PropOp31
 70
     1
102
RTVSPost2010Prop32
280
     0
102
RTVSPost2010PropOp32
 70
     1
102
RTVSPost2010Prop33
280
     0
102
RTVSPost2010PropOp33
 70
     1
102
RTVSPost2010Prop34
280
     0
102
RTVSPost2010PropOp34
 70
     1
102
RTVSPost2010Prop35
280
     0
102
RTVSPost2010PropOp35
 70
     1
102
RTVSPost2010Prop36
280
     0
102
RTVSPost2010PropOp36
 70
     1
102
RTVSPost2010Prop37
 90
       50
102
RTVSPost2010PropOp37
 70
     1
102
RTVSPost2010Prop38
140
0.0
102
RTVSPost2010PropOp38
 70
     1
102
RTVSPost2010Prop39
140
1.0
102
RTVSPost2010PropOp39
 70
     1
102
RTVSPost2010Prop40
 90
        0
102
RTVSPost2010PropOp40
 70
     1
102
RTVSPost2010Prop41ColorIndex
 90
       18
102
RTVSPost2010Prop41ColorRGB
 90
        0
102
RTVSPost2010PropOp41
 70
     1
102
RTVSPost2010Prop42
 90
       50
102
RTVSPost2010PropOp42
 70
     1
102
RTVSPost2010Prop43
 90
        3
102
RTVSPost2010PropOp43
 70
     1
102
RTVSPost2010Prop44ColorIndex
 90
        5
102
RTVSPost2010Prop44ColorRGB
 90
      255
102
RTVSPost2010PropOp44
 70
     1
102
RTVSPost2010Prop45
280
     0
102
RTVSPost2010PropOp45
 70
     1
102
RTVSPost2010Prop46
 90
       50
102
RTVSPost2010PropOp46
 70
     1
102
RTVSPost2010Prop47
 90
       50
102
RTVSPost2010PropOp47
 70
     1
102
RTVSPost2010Prop48
 90
       50
102
RTVSPost2010PropOp48
 70
     1
102
RTVSPost2010Prop49
280
     0
102
RTVSPost2010PropOp49
 70
     1
102
RTVSPost2010Prop50
 90
       50
102
RTVSPost2010PropOp50
 70
     1
102
RTVSPost2010Prop51ColorIndex
 90
      256
102
RTVSPost2010Prop51ColorRGB
 90
-16777216
102
RTVSPost2010PropOp51
 70
     0
102
RTVSPost2010Prop52
140
1.0
102
RTVSPost2010PropOp52
 70
     0
102
RTVSPost2010Prop53
 90
        2
102
RTVSPost2010PropOp53
 70
     1
102
RTVSPost2010Prop54
  1
strokes_ogs.tif
102
RTVSPost2010PropOp54
 70
     1
102
RTVSPost2010Prop55
280
     0
102
RTVSPost2010PropOp55
 70
     1
102
RTVSPost2010Prop56
140
1.0
102
RTVSPost2010PropOp56
 70
     1
102
RTVSPost2010Prop57
140
1.0
102
RTVSPost2010PropOp57
 70
     1
102
RTVSPropertyOp0
 70
     1
102
RTVSPropertyOp1
 70
     1
102
RTVSPropertyOp2
 70
     1
102
RTVSPropertyOp3
 70
     1
102
RTVSPropertyOp4
 70
     1
102
RTVSPropertyOp5
 70
     1
102
RTVSPropertyOp6
 70
     1
102
RTVSPropertyOp7
 70
     1
102
RTVSPropertyOp8
 70
     1
102
RTVSPropertyOp9
 70
     1
102
RTVSPropertyOp10
 70
     1
102
RTVSPropertyOp11
 70
     1
102
RTVSPropertyOp12
 70
     1
102
RTVSPropertyOp13
 70
     1
102
RTVSPropertyOp14
 70
     1
102
RTVSPropertyOp15
 70
     1
102
RTVSPropertyOp16
 70
     1
102
RTVSPropertyOp17
 70
     1
102
RTVSPropertyOp18
 70
     1
102
RTVSPropertyOp19
 70
     1
102
RTVSPropertyOp20
 70
     1
102
RTVSPropertyOp21
 70
     1
102
RTVSPropertyOp22
 70
     1
102
RTVSPropertyOp23
 70
     1
102
RTVSPropertyOp24
 70
     1
102
RTVSPropertyOp25
 70
     1
102
RTVSPropertyOp26
 70
     1
102
RTVSPropertyOp27
 70
     1
102
RTVSPropertyOp28
 70
     1
102
RTVSPropertyOp29
 70
     1
102
RTVSPropertyOp30
 70
     1
102
RTVSPropertyOp31
 70
     1
102
RTVSPropertyOp32
 70
     1
102
RTVSPropertyOp33
 70
     1
102
RTVSPropertyOp34
 70
     1
102
RTVSPropertyOp35
 70
     1
102
RTVSPropertyOp36
 70
     1
102
RTVSPropertyOp37
 70
     1
102
RTVSPropertyOp38
 70
     1
102
RTVSPropertyOp39
 70
     1
102
RTVSPropertyOp40
 70
     1
102
RTVSPropertyOp41
 70
     1
102
RTVSPropertyOp42
 70
     1
102
RTVSPropertyOp43
 70
     1
102
RTVSPropertyOp44
 70
     1
102
RTVSPropertyOp45
 70
     1
102
RTVSPropertyOp46
 70
     1
102
RTVSPropertyOp47
 70
     1
102
RTVSPropertyOp48
 70
     1
102
RTVSPropertyOp49
 70
     1
102
RTVSPropertyOp50
 70
     1
102
RTVSPropertyOp51
 70
     0
102
RTVSPropertyOp52
 70
     0
102
RTVSPropertyOp53
 70
     1
102
RTVSPropertyOp54
 70
     1
102
RTVSPropertyOp55
 70
     1
102
RTVSPropertyOp56
 70
     1
102
RTVSPropertyOp57
 70
     1
102
RTVSPropertyOp58
 70
     1
102
RTVSPropertyOp59
 70
     1
102
RTVSPropertyOp60
 70
     1
102
RTVSPropertyOp61
 70
     1
102
RTVSPropertyOp62
 70
     1
  0
XRECORD
  5
3BE
102
{ACAD_REACTORS
330
3BD
102
}
330
3BD
100
AcDbXrecord
280
     1
102
RTVSPost2010Prop28
280
     0
102
RTVSPost2010PropOp28
 70
     1
102
RTVSPost2010Prop29
280
     1
102
RTVSPost2010PropOp29
 70
     1
102
RTVSPost2010Prop30
280
     1
102
RTVSPost2010PropOp30
 70
     1
102
RTVSPost2010Prop31
280
     0
102
RTVSPost2010PropOp31
 70
     1
102
RTVSPost2010Prop32
280
     0
102
RTVSPost2010PropOp32
 70
     1
102
RTVSPost2010Prop33
280
     0
102
RTVSPost2010PropOp33
 70
     1
102
RTVSPost2010Prop34
280
     0
102
RTVSPost2010PropOp34
 70
     1
102
RTVSPost2010Prop35
280
     0
102
RTVSPost2010PropOp35
 70
     1
102
RTVSPost2010Prop36
280
     0
102
RTVSPost2010PropOp36
 70
     1
102
RTVSPost2010Prop37
 90
       50
102
RTVSPost2010PropOp37
 70
     1
102
RTVSPost2010Prop38
140
0.0
102
RTVSPost2010PropOp38
 70
     1
102
RTVSPost2010Prop39
140
1.0
102
RTVSPost2010PropOp39
 70
     1
102
RTVSPost2010Prop40
 90
        0
102
RTVSPost2010PropOp40
 70
     1
102
RTVSPost2010Prop41ColorIndex
 90
       18
102
RTVSPost2010Prop41ColorRGB
 90
        0
102
RTVSPost2010PropOp41
 70
     1
102
RTVSPost2010Prop42
 90
       50
102
RTVSPost2010PropOp42
 70
     1
102
RTVSPost2010Prop43
 90
        3
102
RTVSPost2010PropOp43
 70
     1
102
RTVSPost2010Prop44ColorIndex
 90
        5
102
RTVSPost2010Prop44ColorRGB
 90
      255
102
RTVSPost2010PropOp44
 70
     1
102
RTVSPost2010Prop45
280
     0
102
RTVSPost2010PropOp45
 70
     1
102
RTVSPost2010Prop46
 90
       50
102
RTVSPost2010PropOp46
 70
     1
102
RTVSPost2010Prop47
 90
       50
102
RTVSPost2010PropOp47
 70
     1
102
RTVSPost2010Prop48
 90
       50
102
RTVSPost2010PropOp48
 70
     1
102
RTVSPost2010Prop49
280
     0
102
RTVSPost2010PropOp49
 70
     1
102
RTVSPost2010Prop50
 90
       50
102
RTVSPost2010PropOp50
 70
     1
102
RTVSPost2010Prop51ColorIndex
 90
      256
102
RTVSPost2010Prop51ColorRGB
 90
-16777216
102
RTVSPost2010PropOp51
 70
     0
102
RTVSPost2010Prop52
140
1.0
102
RTVSPost2010PropOp52
 70
     0
102
RTVSPost2010Prop53
 90
        2
102
RTVSPost2010PropOp53
 70
     1
102
RTVSPost2010Prop54
  1
strokes_ogs.tif
102
RTVSPost2010PropOp54
 70
     1
102
RTVSPost2010Prop55
280
     0
102
RTVSPost2010PropOp55
 70
     1
102
RTVSPost2010Prop56
140
1.0
102
RTVSPost2010PropOp56
 70
     1
102
RTVSPost2010Prop57
140
1.0
102
RTVSPost2010PropOp57
 70
     1
102
RTVSPropertyOp0
 70
     1
102
RTVSPropertyOp1
 70
     1
102
RTVSPropertyOp2
 70
     1
102
RTVSPropertyOp3
 70
     1
102
RTVSPropertyOp4
 70
     1
102
RTVSPropertyOp5
 70
     1
102
RTVSPropertyOp6
 70
     1
102
RTVSPropertyOp7
 70
     1
102
RTVSPropertyOp8
 70
     1
102
RTVSPropertyOp9
 70
     1
102
RTVSPropertyOp10
 70
     1
102
RTVSPropertyOp11
 70
     1
102
RTVSPropertyOp12
 70
     1
102
RTVSPropertyOp13
 70
     1
102
RTVSPropertyOp14
 70
     1
102
RTVSPropertyOp15
 70
     1
102
RTVSPropertyOp16
 70
     1
102
RTVSPropertyOp17
 70
     1
102
RTVSPropertyOp18
 70
     1
102
RTVSPropertyOp19
 70
     1
102
RTVSPropertyOp20
 70
     1
102
RTVSPropertyOp21
 70
     1
102
RTVSPropertyOp22
 70
     1
102
RTVSPropertyOp23
 70
     1
102
RTVSPropertyOp24
 70
     1
102
RTVSPropertyOp25
 70
     1
102
RTVSPropertyOp26
 70
     1
102
RTVSPropertyOp27
 70
     1
102
RTVSPropertyOp28
 70
     1
102
RTVSPropertyOp29
 70
     1
102
RTVSPropertyOp30
 70
     1
102
RTVSPropertyOp31
 70
     1
102
RTVSPropertyOp32
 70
     1
102
RTVSPropertyOp33
 70
     1
102
RTVSPropertyOp34
 70
     1
102
RTVSPropertyOp35
 70
     1
102
RTVSPropertyOp36
 70
     1
102
RTVSPropertyOp37
 70
     1
102
RTVSPropertyOp38
 70
     1
102
RTVSPropertyOp39
 70
     1
102
RTVSPropertyOp40
 70
     1
102
RTVSPropertyOp41
 70
     1
102
RTVSPropertyOp42
 70
     1
102
RTVSPropertyOp43
 70
     1
102
RTVSPropertyOp44
 70
     1
102
RTVSPropertyOp45
 70
     1
102
RTVSPropertyOp46
 70
     1
102
RTVSPropertyOp47
 70
     1
102
RTVSPropertyOp48
 70
     1
102
RTVSPropertyOp49
 70
     1
102
RTVSPropertyOp50
 70
     1
102
RTVSPropertyOp51
 70
     0
102
RTVSPropertyOp52
 70
     0
102
RTVSPropertyOp53
 70
     1
102
RTVSPropertyOp54
 70
     1
102
RTVSPropertyOp55
 70
     1
102
RTVSPropertyOp56
 70
     1
102
RTVSPropertyOp57
 70
     1
102
RTVSPropertyOp58
 70
     1
102
RTVSPropertyOp59
 70
     1
102
RTVSPropertyOp60
 70
     1
102
RTVSPropertyOp61
 70
     1
102
RTVSPropertyOp62
 70
     1
  0
XRECORD
  5
3DA
102
{ACAD_REACTORS
330
3D9
102
}
330
3D9
100
AcDbXrecord
280
     1
102
RTVSPost2010Prop28
280
     0
102
RTVSPost2010PropOp28
 70
     0
102
RTVSPost2010Prop29
280
     1
102
RTVSPost2010PropOp29
 70
     0
102
RTVSPost2010Prop30
280
     1
102
RTVSPost2010PropOp30
 70
     0
102
RTVSPost2010Prop31
280
     0
102
RTVSPost2010PropOp31
 70
     0
102
RTVSPost2010Prop32
280
     0
102
RTVSPost2010PropOp32
 70
     0
102
RTVSPost2010Prop33
280
     0
102
RTVSPost2010PropOp33
 70
     0
102
RTVSPost2010Prop34
280
     0
102
RTVSPost2010PropOp34
 70
     0
102
RTVSPost2010Prop35
280
     0
102
RTVSPost2010PropOp35
 70
     0
102
RTVSPost2010Prop36
280
     0
102
RTVSPost2010PropOp36
 70
     0
102
RTVSPost2010Prop37
 90
       50
102
RTVSPost2010PropOp37
 70
     0
102
RTVSPost2010Prop38
140
0.0
102
RTVSPost2010PropOp38
 70
     0
102
RTVSPost2010Prop39
140
1.0
102
RTVSPost2010PropOp39
 70
     0
102
RTVSPost2010Prop40
 90
        0
102
RTVSPost2010PropOp40
 70
     0
102
RTVSPost2010Prop41ColorIndex
 90
       18
102
RTVSPost2010Prop41ColorRGB
 90
        0
102
RTVSPost2010PropOp41
 70
     0
102
RTVSPost2010Prop42
 90
       50
102
RTVSPost2010PropOp42
 70
     0
102
RTVSPost2010Prop43
 90
        3
102
RTVSPost2010PropOp43
 70
     0
102
RTVSPost2010Prop44ColorIndex
 90
        5
102
RTVSPost2010Prop44ColorRGB
 90
      255
102
RTVSPost2010PropOp44
 70
     0
102
RTVSPost2010Prop45
280
     0
102
RTVSPost2010PropOp45
 70
     0
102
RTVSPost2010Prop46
 90
       50
102
RTVSPost2010PropOp46
 70
     0
102
RTVSPost2010Prop47
 90
       50
102
RTVSPost2010PropOp47
 70
     0
102
RTVSPost2010Prop48
 90
       50
102
RTVSPost2010PropOp48
 70
     0
102
RTVSPost2010Prop49
280
     0
102
RTVSPost2010PropOp49
 70
     0
102
RTVSPost2010Prop50
 90
       50
102
RTVSPost2010PropOp50
 70
     0
102
RTVSPost2010Prop51ColorIndex
 90
      256
102
RTVSPost2010Prop51ColorRGB
 90
-16777216
102
RTVSPost2010PropOp51
 70
     0
102
RTVSPost2010Prop52
140
1.0
102
RTVSPost2010PropOp52
 70
     0
102
RTVSPost2010Prop53
 90
        2
102
RTVSPost2010PropOp53
 70
     0
102
RTVSPost2010Prop54
  1
strokes_ogs.tif
102
RTVSPost2010PropOp54
 70
     0
102
RTVSPost2010Prop55
280
     0
102
RTVSPost2010PropOp55
 70
     0
102
RTVSPost2010Prop56
140
1.0
102
RTVSPost2010PropOp56
 70
     0
102
RTVSPost2010Prop57
140
1.0
102
RTVSPost2010PropOp57
 70
     0
102
RTVSPropertyOp0
 70
     0
102
RTVSPropertyOp1
 70
     0
102
RTVSPropertyOp2
 70
     0
102
RTVSPropertyOp3
 70
     0
102
RTVSPropertyOp4
 70
     0
102
RTVSPropertyOp5
 70
     0
102
RTVSPropertyOp6
 70
     0
102
RTVSPropertyOp7
 70
     0
102
RTVSPropertyOp8
 70
     0
102
RTVSPropertyOp9
 70
     0
102
RTVSPropertyOp10
 70
     0
102
RTVSPropertyOp11
 70
     0
102
RTVSPropertyOp12
 70
     0
102
RTVSPropertyOp13
 70
     0
102
RTVSPropertyOp14
 70
     2
102
RTVSPropertyOp15
 70
     0
102
RTVSPropertyOp16
 70
     0
102
RTVSPropertyOp17
 70
     0
102
RTVSPropertyOp18
 70
     0
102
RTVSPropertyOp19
 70
     0
102
RTVSPropertyOp20
 70
     0
102
RTVSPropertyOp21
 70
     0
102
RTVSPropertyOp22
 70
     0
102
RTVSPropertyOp23
 70
     0
102
RTVSPropertyOp24
 70
     0
102
RTVSPropertyOp25
 70
     0
102
RTVSPropertyOp26
 70
     0
102
RTVSPropertyOp27
 70
     0
102
RTVSPropertyOp28
 70
     0
102
RTVSPropertyOp29
 70
     0
102
RTVSPropertyOp30
 70
     0
102
RTVSPropertyOp31
 70
     0
102
RTVSPropertyOp32
 70
     0
102
RTVSPropertyOp33
 70
     0
102
RTVSPropertyOp34
 70
     0
102
RTVSPropertyOp35
 70
     0
102
RTVSPropertyOp36
 70
     0
102
RTVSPropertyOp37
 70
     0
102
RTVSPropertyOp38
 70
     0
102
RTVSPropertyOp39
 70
     0
102
RTVSPropertyOp40
 70
     0
102
RTVSPropertyOp41
 70
     0
102
RTVSPropertyOp42
 70
     0
102
RTVSPropertyOp43
 70
     0
102
RTVSPropertyOp44
 70
     0
102
RTVSPropertyOp45
 70
     0
102
RTVSPropertyOp46
 70
     0
102
RTVSPropertyOp47
 70
     0
102
RTVSPropertyOp48
 70
     0
102
RTVSPropertyOp49
 70
     0
102
RTVSPropertyOp50
 70
     0
102
RTVSPropertyOp51
 70
     0
102
RTVSPropertyOp52
 70
     0
102
RTVSPropertyOp53
 70
     0
102
RTVSPropertyOp54
 70
     0
102
RTVSPropertyOp55
 70
     0
102
RTVSPropertyOp56
 70
     0
102
RTVSPropertyOp57
 70
     0
102
RTVSPropertyOp58
 70
     0
102
RTVSPropertyOp59
 70
     0
102
RTVSPropertyOp60
 70
     0
102
RTVSPropertyOp61
 70
     0
102
RTVSPropertyOp62
 70
     0
  0
XRECORD
  5
3CA
102
{ACAD_REACTORS
330
3C9
102
}
330
3C9
100
AcDbXrecord
280
     1
102
RTVSPost2010Prop28
280
     0
102
RTVSPost2010PropOp28
 70
     1
102
RTVSPost2010Prop29
280
     1
102
RTVSPost2010PropOp29
 70
     1
102
RTVSPost2010Prop30
280
     1
102
RTVSPost2010PropOp30
 70
     1
102
RTVSPost2010Prop31
280
     0
102
RTVSPost2010PropOp31
 70
     1
102
RTVSPost2010Prop32
280
     0
102
RTVSPost2010PropOp32
 70
     1
102
RTVSPost2010Prop33
280
     0
102
RTVSPost2010PropOp33
 70
     1
102
RTVSPost2010Prop34
280
     0
102
RTVSPost2010PropOp34
 70
     1
102
RTVSPost2010Prop35
280
     0
102
RTVSPost2010PropOp35
 70
     1
102
RTVSPost2010Prop36
280
     0
102
RTVSPost2010PropOp36
 70
     1
102
RTVSPost2010Prop37
 90
       50
102
RTVSPost2010PropOp37
 70
     1
102
RTVSPost2010Prop38
140
0.0
102
RTVSPost2010PropOp38
 70
     1
102
RTVSPost2010Prop39
140
1.0
102
RTVSPost2010PropOp39
 70
     1
102
RTVSPost2010Prop40
 90
        0
102
RTVSPost2010PropOp40
 70
     1
102
RTVSPost2010Prop41ColorIndex
 90
       18
102
RTVSPost2010Prop41ColorRGB
 90
        0
102
RTVSPost2010PropOp41
 70
     1
102
RTVSPost2010Prop42
 90
       50
102
RTVSPost2010PropOp42
 70
     1
102
RTVSPost2010Prop43
 90
        3
102
RTVSPost2010PropOp43
 70
     1
102
RTVSPost2010Prop44ColorIndex
 90
        5
102
RTVSPost2010Prop44ColorRGB
 90
      255
102
RTVSPost2010PropOp44
 70
     1
102
RTVSPost2010Prop45
280
     0
102
RTVSPost2010PropOp45
 70
     1
102
RTVSPost2010Prop46
 90
       50
102
RTVSPost2010PropOp46
 70
     1
102
RTVSPost2010Prop47
 90
       50
102
RTVSPost2010PropOp47
 70
     1
102
RTVSPost2010Prop48
 90
       50
102
RTVSPost2010PropOp48
 70
     1
102
RTVSPost2010Prop49
280
     0
102
RTVSPost2010PropOp49
 70
     1
102
RTVSPost2010Prop50
 90
       50
102
RTVSPost2010PropOp50
 70
     1
102
RTVSPost2010Prop51ColorIndex
 90
      256
102
RTVSPost2010Prop51ColorRGB
 90
-16777216
102
RTVSPost2010PropOp51
 70
     0
102
RTVSPost2010Prop52
140
1.0
102
RTVSPost2010PropOp52
 70
     0
102
RTVSPost2010Prop53
 90
        2
102
RTVSPost2010PropOp53
 70
     1
102
RTVSPost2010Prop54
  1
strokes_ogs.tif
102
RTVSPost2010PropOp54
 70
     1
102
RTVSPost2010Prop55
280
     0
102
RTVSPost2010PropOp55
 70
     1
102
RTVSPost2010Prop56
140
1.0
102
RTVSPost2010PropOp56
 70
     1
102
RTVSPost2010Prop57
140
1.0
102
RTVSPost2010PropOp57
 70
     1
102
RTVSPropertyOp0
 70
     1
102
RTVSPropertyOp1
 70
     1
102
RTVSPropertyOp2
 70
     1
102
RTVSPropertyOp3
 70
     1
102
RTVSPropertyOp4
 70
     1
102
RTVSPropertyOp5
 70
     1
102
RTVSPropertyOp6
 70
     1
102
RTVSPropertyOp7
 70
     1
102
RTVSPropertyOp8
 70
     1
102
RTVSPropertyOp9
 70
     1
102
RTVSPropertyOp10
 70
     1
102
RTVSPropertyOp11
 70
     1
102
RTVSPropertyOp12
 70
     1
102
RTVSPropertyOp13
 70
     1
102
RTVSPropertyOp14
 70
     1
102
RTVSPropertyOp15
 70
     1
102
RTVSPropertyOp16
 70
     1
102
RTVSPropertyOp17
 70
     1
102
RTVSPropertyOp18
 70
     1
102
RTVSPropertyOp19
 70
     1
102
RTVSPropertyOp20
 70
     1
102
RTVSPropertyOp21
 70
     1
102
RTVSPropertyOp22
 70
     1
102
RTVSPropertyOp23
 70
     1
102
RTVSPropertyOp24
 70
     1
102
RTVSPropertyOp25
 70
     1
102
RTVSPropertyOp26
 70
     1
102
RTVSPropertyOp27
 70
     1
102
RTVSPropertyOp28
 70
     1
102
RTVSPropertyOp29
 70
     1
102
RTVSPropertyOp30
 70
     1
102
RTVSPropertyOp31
 70
     1
102
RTVSPropertyOp32
 70
     1
102
RTVSPropertyOp33
 70
     1
102
RTVSPropertyOp34
 70
     1
102
RTVSPropertyOp35
 70
     1
102
RTVSPropertyOp36
 70
     1
102
RTVSPropertyOp37
 70
     1
102
RTVSPropertyOp38
 70
     1
102
RTVSPropertyOp39
 70
     1
102
RTVSPropertyOp40
 70
     1
102
RTVSPropertyOp41
 70
     1
102
RTVSPropertyOp42
 70
     1
102
RTVSPropertyOp43
 70
     1
102
RTVSPropertyOp44
 70
     1
102
RTVSPropertyOp45
 70
     1
102
RTVSPropertyOp46
 70
     1
102
RTVSPropertyOp47
 70
     1
102
RTVSPropertyOp48
 70
     1
102
RTVSPropertyOp49
 70
     1
102
RTVSPropertyOp50
 70
     1
102
RTVSPropertyOp51
 70
     0
102
RTVSPropertyOp52
 70
     0
102
RTVSPropertyOp53
 70
     1
102
RTVSPropertyOp54
 70
     1
102
RTVSPropertyOp55
 70
     1
102
RTVSPropertyOp56
 70
     1
102
RTVSPropertyOp57
 70
     1
102
RTVSPropertyOp58
 70
     1
102
RTVSPropertyOp59
 70
     1
102
RTVSPropertyOp60
 70
     1
102
RTVSPropertyOp61
 70
     1
102
RTVSPropertyOp62
 70
     1
  0
XRECORD
  5
3DC
102
{ACAD_REACTORS
330
3DB
102
}
330
3DB
100
AcDbXrecord
280
     1
102
RTVSPost2010Prop28
280
     0
102
RTVSPost2010PropOp28
 70
     0
102
RTVSPost2010Prop29
280
     1
102
RTVSPost2010PropOp29
 70
     0
102
RTVSPost2010Prop30
280
     1
102
RTVSPost2010PropOp30
 70
     0
102
RTVSPost2010Prop31
280
     0
102
RTVSPost2010PropOp31
 70
     0
102
RTVSPost2010Prop32
280
     0
102
RTVSPost2010PropOp32
 70
     0
102
RTVSPost2010Prop33
280
     0
102
RTVSPost2010PropOp33
 70
     0
102
RTVSPost2010Prop34
280
     0
102
RTVSPost2010PropOp34
 70
     0
102
RTVSPost2010Prop35
280
     0
102
RTVSPost2010PropOp35
 70
     0
102
RTVSPost2010Prop36
280
     0
102
RTVSPost2010PropOp36
 70
     0
102
RTVSPost2010Prop37
 90
       50
102
RTVSPost2010PropOp37
 70
     0
102
RTVSPost2010Prop38
140
0.0
102
RTVSPost2010PropOp38
 70
     0
102
RTVSPost2010Prop39
140
1.0
102
RTVSPost2010PropOp39
 70
     0
102
RTVSPost2010Prop40
 90
        0
102
RTVSPost2010PropOp40
 70
     0
102
RTVSPost2010Prop41ColorIndex
 90
       18
102
RTVSPost2010Prop41ColorRGB
 90
        0
102
RTVSPost2010PropOp41
 70
     0
102
RTVSPost2010Prop42
 90
       50
102
RTVSPost2010PropOp42
 70
     0
102
RTVSPost2010Prop43
 90
        3
102
RTVSPost2010PropOp43
 70
     0
102
RTVSPost2010Prop44ColorIndex
 90
        5
102
RTVSPost2010Prop44ColorRGB
 90
      255
102
RTVSPost2010PropOp44
 70
     0
102
RTVSPost2010Prop45
280
     0
102
RTVSPost2010PropOp45
 70
     0
102
RTVSPost2010Prop46
 90
       50
102
RTVSPost2010PropOp46
 70
     0
102
RTVSPost2010Prop47
 90
       50
102
RTVSPost2010PropOp47
 70
     0
102
RTVSPost2010Prop48
 90
       50
102
RTVSPost2010PropOp48
 70
     0
102
RTVSPost2010Prop49
280
     0
102
RTVSPost2010PropOp49
 70
     0
102
RTVSPost2010Prop50
 90
       50
102
RTVSPost2010PropOp50
 70
     0
102
RTVSPost2010Prop51ColorIndex
 90
      256
102
RTVSPost2010Prop51ColorRGB
 90
-16777216
102
RTVSPost2010PropOp51
 70
     0
102
RTVSPost2010Prop52
140
1.0
102
RTVSPost2010PropOp52
 70
     0
102
RTVSPost2010Prop53
 90
        2
102
RTVSPost2010PropOp53
 70
     0
102
RTVSPost2010Prop54
  1
strokes_ogs.tif
102
RTVSPost2010PropOp54
 70
     0
102
RTVSPost2010Prop55
280
     0
102
RTVSPost2010PropOp55
 70
     0
102
RTVSPost2010Prop56
140
1.0
102
RTVSPost2010PropOp56
 70
     0
102
RTVSPost2010Prop57
140
1.0
102
RTVSPost2010PropOp57
 70
     0
102
RTVSPropertyOp0
 70
     0
102
RTVSPropertyOp1
 70
     0
102
RTVSPropertyOp2
 70
     0
102
RTVSPropertyOp3
 70
     0
102
RTVSPropertyOp4
 70
     0
102
RTVSPropertyOp5
 70
     0
102
RTVSPropertyOp6
 70
     0
102
RTVSPropertyOp7
 70
     0
102
RTVSPropertyOp8
 70
     0
102
RTVSPropertyOp9
 70
     0
102
RTVSPropertyOp10
 70
     0
102
RTVSPropertyOp11
 70
     0
102
RTVSPropertyOp12
 70
     0
102
RTVSPropertyOp13
 70
     0
102
RTVSPropertyOp14
 70
     2
102
RTVSPropertyOp15
 70
     0
102
RTVSPropertyOp16
 70
     0
102
RTVSPropertyOp17
 70
     0
102
RTVSPropertyOp18
 70
     0
102
RTVSPropertyOp19
 70
     0
102
RTVSPropertyOp20
 70
     0
102
RTVSPropertyOp21
 70
     0
102
RTVSPropertyOp22
 70
     0
102
RTVSPropertyOp23
 70
     0
102
RTVSPropertyOp24
 70
     0
102
RTVSPropertyOp25
 70
     0
102
RTVSPropertyOp26
 70
     0
102
RTVSPropertyOp27
 70
     0
102
RTVSPropertyOp28
 70
     0
102
RTVSPropertyOp29
 70
     0
102
RTVSPropertyOp30
 70
     0
102
RTVSPropertyOp31
 70
     0
102
RTVSPropertyOp32
 70
     0
102
RTVSPropertyOp33
 70
     0
102
RTVSPropertyOp34
 70
     0
102
RTVSPropertyOp35
 70
     0
102
RTVSPropertyOp36
 70
     0
102
RTVSPropertyOp37
 70
     0
102
RTVSPropertyOp38
 70
     0
102
RTVSPropertyOp39
 70
     0
102
RTVSPropertyOp40
 70
     0
102
RTVSPropertyOp41
 70
     0
102
RTVSPropertyOp42
 70
     0
102
RTVSPropertyOp43
 70
     0
102
RTVSPropertyOp44
 70
     0
102
RTVSPropertyOp45
 70
     0
102
RTVSPropertyOp46
 70
     0
102
RTVSPropertyOp47
 70
     0
102
RTVSPropertyOp48
 70
     0
102
RTVSPropertyOp49
 70
     0
102
RTVSPropertyOp50
 70
     0
102
RTVSPropertyOp51
 70
     0
102
RTVSPropertyOp52
 70
     0
102
RTVSPropertyOp53
 70
     0
102
RTVSPropertyOp54
 70
     0
102
RTVSPropertyOp55
 70
     0
102
RTVSPropertyOp56
 70
     0
102
RTVSPropertyOp57
 70
     0
102
RTVSPropertyOp58
 70
     0
102
RTVSPropertyOp59
 70
     0
102
RTVSPropertyOp60
 70
     0
102
RTVSPropertyOp61
 70
     0
102
RTVSPropertyOp62
 70
     0
  0
XRECORD
  5
3C2
102
{ACAD_REACTORS
330
3C1
102
}
330
3C1
100
AcDbXrecord
280
     1
102
RTVSPost2010Prop28
280
     0
102
RTVSPost2010PropOp28
 70
     1
102
RTVSPost2010Prop29
280
     1
102
RTVSPost2010PropOp29
 70
     1
102
RTVSPost2010Prop30
280
     1
102
RTVSPost2010PropOp30
 70
     1
102
RTVSPost2010Prop31
280
     0
102
RTVSPost2010PropOp31
 70
     1
102
RTVSPost2010Prop32
280
     0
102
RTVSPost2010PropOp32
 70
     1
102
RTVSPost2010Prop33
280
     0
102
RTVSPost2010PropOp33
 70
     1
102
RTVSPost2010Prop34
280
     0
102
RTVSPost2010PropOp34
 70
     1
102
RTVSPost2010Prop35
280
     0
102
RTVSPost2010PropOp35
 70
     1
102
RTVSPost2010Prop36
280
     0
102
RTVSPost2010PropOp36
 70
     1
102
RTVSPost2010Prop37
 90
       50
102
RTVSPost2010PropOp37
 70
     1
102
RTVSPost2010Prop38
140
0.0
102
RTVSPost2010PropOp38
 70
     1
102
RTVSPost2010Prop39
140
1.0
102
RTVSPost2010PropOp39
 70
     1
102
RTVSPost2010Prop40
 90
        0
102
RTVSPost2010PropOp40
 70
     1
102
RTVSPost2010Prop41ColorIndex
 90
       18
102
RTVSPost2010Prop41ColorRGB
 90
        0
102
RTVSPost2010PropOp41
 70
     1
102
RTVSPost2010Prop42
 90
       50
102
RTVSPost2010PropOp42
 70
     1
102
RTVSPost2010Prop43
 90
        3
102
RTVSPost2010PropOp43
 70
     1
102
RTVSPost2010Prop44ColorIndex
 90
        5
102
RTVSPost2010Prop44ColorRGB
 90
      255
102
RTVSPost2010PropOp44
 70
     1
102
RTVSPost2010Prop45
280
     0
102
RTVSPost2010PropOp45
 70
     1
102
RTVSPost2010Prop46
 90
       50
102
RTVSPost2010PropOp46
 70
     1
102
RTVSPost2010Prop47
 90
       50
102
RTVSPost2010PropOp47
 70
     1
102
RTVSPost2010Prop48
 90
       50
102
RTVSPost2010PropOp48
 70
     1
102
RTVSPost2010Prop49
280
     0
102
RTVSPost2010PropOp49
 70
     1
102
RTVSPost2010Prop50
 90
       50
102
RTVSPost2010PropOp50
 70
     1
102
RTVSPost2010Prop51ColorIndex
 90
      256
102
RTVSPost2010Prop51ColorRGB
 90
-16777216
102
RTVSPost2010PropOp51
 70
     0
102
RTVSPost2010Prop52
140
1.0
102
RTVSPost2010PropOp52
 70
     0
102
RTVSPost2010Prop53
 90
        2
102
RTVSPost2010PropOp53
 70
     1
102
RTVSPost2010Prop54
  1
strokes_ogs.tif
102
RTVSPost2010PropOp54
 70
     1
102
RTVSPost2010Prop55
280
     0
102
RTVSPost2010PropOp55
 70
     1
102
RTVSPost2010Prop56
140
1.0
102
RTVSPost2010PropOp56
 70
     1
102
RTVSPost2010Prop57
140
1.0
102
RTVSPost2010PropOp57
 70
     1
102
RTVSPropertyOp0
 70
     1
102
RTVSPropertyOp1
 70
     1
102
RTVSPropertyOp2
 70
     1
102
RTVSPropertyOp3
 70
     1
102
RTVSPropertyOp4
 70
     1
102
RTVSPropertyOp5
 70
     1
102
RTVSPropertyOp6
 70
     1
102
RTVSPropertyOp7
 70
     1
102
RTVSPropertyOp8
 70
     1
102
RTVSPropertyOp9
 70
     1
102
RTVSPropertyOp10
 70
     1
102
RTVSPropertyOp11
 70
     1
102
RTVSPropertyOp12
 70
     1
102
RTVSPropertyOp13
 70
     1
102
RTVSPropertyOp14
 70
     1
102
RTVSPropertyOp15
 70
     1
102
RTVSPropertyOp16
 70
     1
102
RTVSPropertyOp17
 70
     1
102
RTVSPropertyOp18
 70
     1
102
RTVSPropertyOp19
 70
     1
102
RTVSPropertyOp20
 70
     1
102
RTVSPropertyOp21
 70
     1
102
RTVSPropertyOp22
 70
     1
102
RTVSPropertyOp23
 70
     1
102
RTVSPropertyOp24
 70
     1
102
RTVSPropertyOp25
 70
     1
102
RTVSPropertyOp26
 70
     1
102
RTVSPropertyOp27
 70
     1
102
RTVSPropertyOp28
 70
     1
102
RTVSPropertyOp29
 70
     1
102
RTVSPropertyOp30
 70
     1
102
RTVSPropertyOp31
 70
     1
102
RTVSPropertyOp32
 70
     1
102
RTVSPropertyOp33
 70
     1
102
RTVSPropertyOp34
 70
     1
102
RTVSPropertyOp35
 70
     1
102
RTVSPropertyOp36
 70
     1
102
RTVSPropertyOp37
 70
     1
102
RTVSPropertyOp38
 70
     1
102
RTVSPropertyOp39
 70
     1
102
RTVSPropertyOp40
 70
     1
102
RTVSPropertyOp41
 70
     1
102
RTVSPropertyOp42
 70
     1
102
RTVSPropertyOp43
 70
     1
102
RTVSPropertyOp44
 70
     1
102
RTVSPropertyOp45
 70
     1
102
RTVSPropertyOp46
 70
     1
102
RTVSPropertyOp47
 70
     1
102
RTVSPropertyOp48
 70
     1
102
RTVSPropertyOp49
 70
     1
102
RTVSPropertyOp50
 70
     1
102
RTVSPropertyOp51
 70
     0
102
RTVSPropertyOp52
 70
     0
102
RTVSPropertyOp53
 70
     1
102
RTVSPropertyOp54
 70
     1
102
RTVSPropertyOp55
 70
     1
102
RTVSPropertyOp56
 70
     1
102
RTVSPropertyOp57
 70
     1
102
RTVSPropertyOp58
 70
     1
102
RTVSPropertyOp59
 70
     1
102
RTVSPropertyOp60
 70
     1
102
RTVSPropertyOp61
 70
     1
102
RTVSPropertyOp62
 70
     1
  0
XRECORD
  5
3D8
102
{ACAD_REACTORS
330
3D7
102
}
330
3D7
100
AcDbXrecord
280
     1
102
RTVSPost2010Prop28
280
     0
102
RTVSPost2010PropOp28
 70
     1
102
RTVSPost2010Prop29
280
     1
102
RTVSPost2010PropOp29
 70
     1
102
RTVSPost2010Prop30
280
     1
102
RTVSPost2010PropOp30
 70
     1
102
RTVSPost2010Prop31
280
     0
102
RTVSPost2010PropOp31
 70
     1
102
RTVSPost2010Prop32
280
     0
102
RTVSPost2010PropOp32
 70
     1
102
RTVSPost2010Prop33
280
     0
102
RTVSPost2010PropOp33
 70
     1
102
RTVSPost2010Prop34
280
     0
102
RTVSPost2010PropOp34
 70
     1
102
RTVSPost2010Prop35
280
     0
102
RTVSPost2010PropOp35
 70
     1
102
RTVSPost2010Prop36
280
     0
102
RTVSPost2010PropOp36
 70
     1
102
RTVSPost2010Prop37
 90
       50
102
RTVSPost2010PropOp37
 70
     1
102
RTVSPost2010Prop38
140
0.0
102
RTVSPost2010PropOp38
 70
     1
102
RTVSPost2010Prop39
140
1.0
102
RTVSPost2010PropOp39
 70
     1
102
RTVSPost2010Prop40
 90
        0
102
RTVSPost2010PropOp40
 70
     1
102
RTVSPost2010Prop41ColorIndex
 90
       18
102
RTVSPost2010Prop41ColorRGB
 90
        0
102
RTVSPost2010PropOp41
 70
     1
102
RTVSPost2010Prop42
 90
       50
102
RTVSPost2010PropOp42
 70
     1
102
RTVSPost2010Prop43
 90
        3
102
RTVSPost2010PropOp43
 70
     1
102
RTVSPost2010Prop44ColorIndex
 90
        5
102
RTVSPost2010Prop44ColorRGB
 90
      255
102
RTVSPost2010PropOp44
 70
     1
102
RTVSPost2010Prop45
280
     0
102
RTVSPost2010PropOp45
 70
     1
102
RTVSPost2010Prop46
 90
       50
102
RTVSPost2010PropOp46
 70
     1
102
RTVSPost2010Prop47
 90
       50
102
RTVSPost2010PropOp47
 70
     1
102
RTVSPost2010Prop48
 90
       50
102
RTVSPost2010PropOp48
 70
     1
102
RTVSPost2010Prop49
280
     0
102
RTVSPost2010PropOp49
 70
     1
102
RTVSPost2010Prop50
 90
       50
102
RTVSPost2010PropOp50
 70
     1
102
RTVSPost2010Prop51ColorIndex
 90
      256
102
RTVSPost2010Prop51ColorRGB
 90
-16777216
102
RTVSPost2010PropOp51
 70
     0
102
RTVSPost2010Prop52
140
1.0
102
RTVSPost2010PropOp52
 70
     0
102
RTVSPost2010Prop53
 90
        2
102
RTVSPost2010PropOp53
 70
     1
102
RTVSPost2010Prop54
  1
strokes_ogs.tif
102
RTVSPost2010PropOp54
 70
     1
102
RTVSPost2010Prop55
280
     0
102
RTVSPost2010PropOp55
 70
     1
102
RTVSPost2010Prop56
140
1.0
102
RTVSPost2010PropOp56
 70
     1
102
RTVSPost2010Prop57
140
1.0
102
RTVSPost2010PropOp57
 70
     1
102
RTVSPropertyOp0
 70
     1
102
RTVSPropertyOp1
 70
     1
102
RTVSPropertyOp2
 70
     1
102
RTVSPropertyOp3
 70
     1
102
RTVSPropertyOp4
 70
     1
102
RTVSPropertyOp5
 70
     1
102
RTVSPropertyOp6
 70
     1
102
RTVSPropertyOp7
 70
     1
102
RTVSPropertyOp8
 70
     1
102
RTVSPropertyOp9
 70
     1
102
RTVSPropertyOp10
 70
     1
102
RTVSPropertyOp11
 70
     1
102
RTVSPropertyOp12
 70
     1
102
RTVSPropertyOp13
 70
     1
102
RTVSPropertyOp14
 70
     1
102
RTVSPropertyOp15
 70
     1
102
RTVSPropertyOp16
 70
     1
102
RTVSPropertyOp17
 70
     1
102
RTVSPropertyOp18
 70
     1
102
RTVSPropertyOp19
 70
     1
102
RTVSPropertyOp20
 70
     1
102
RTVSPropertyOp21
 70
     1
102
RTVSPropertyOp22
 70
     1
102
RTVSPropertyOp23
 70
     1
102
RTVSPropertyOp24
 70
     1
102
RTVSPropertyOp25
 70
     1
102
RTVSPropertyOp26
 70
     1
102
RTVSPropertyOp27
 70
     1
102
RTVSPropertyOp28
 70
     1
102
RTVSPropertyOp29
 70
     1
102
RTVSPropertyOp30
 70
     1
102
RTVSPropertyOp31
 70
     1
102
RTVSPropertyOp32
 70
     1
102
RTVSPropertyOp33
 70
     1
102
RTVSPropertyOp34
 70
     1
102
RTVSPropertyOp35
 70
     1
102
RTVSPropertyOp36
 70
     1
102
RTVSPropertyOp37
 70
     1
102
RTVSPropertyOp38
 70
     1
102
RTVSPropertyOp39
 70
     1
102
RTVSPropertyOp40
 70
     1
102
RTVSPropertyOp41
 70
     1
102
RTVSPropertyOp42
 70
     1
102
RTVSPropertyOp43
 70
     1
102
RTVSPropertyOp44
 70
     1
102
RTVSPropertyOp45
 70
     1
102
RTVSPropertyOp46
 70
     1
102
RTVSPropertyOp47
 70
     1
102
RTVSPropertyOp48
 70
     1
102
RTVSPropertyOp49
 70
     1
102
RTVSPropertyOp50
 70
     1
102
RTVSPropertyOp51
 70
     0
102
RTVSPropertyOp52
 70
     0
102
RTVSPropertyOp53
 70
     1
102
RTVSPropertyOp54
 70
     1
102
RTVSPropertyOp55
 70
     1
102
RTVSPropertyOp56
 70
     1
102
RTVSPropertyOp57
 70
     1
102
RTVSPropertyOp58
 70
     1
102
RTVSPropertyOp59
 70
     1
102
RTVSPropertyOp60
 70
     1
102
RTVSPropertyOp61
 70
     1
102
RTVSPropertyOp62
 70
     1
  0
XRECORD
  5
3D6
102
{ACAD_REACTORS
330
3D5
102
}
330
3D5
100
AcDbXrecord
280
     1
102
RTVSPost2010Prop28
280
     0
102
RTVSPost2010PropOp28
 70
     1
102
RTVSPost2010Prop29
280
     1
102
RTVSPost2010PropOp29
 70
     1
102
RTVSPost2010Prop30
280
     1
102
RTVSPost2010PropOp30
 70
     1
102
RTVSPost2010Prop31
280
     0
102
RTVSPost2010PropOp31
 70
     1
102
RTVSPost2010Prop32
280
     0
102
RTVSPost2010PropOp32
 70
     1
102
RTVSPost2010Prop33
280
     0
102
RTVSPost2010PropOp33
 70
     1
102
RTVSPost2010Prop34
280
     0
102
RTVSPost2010PropOp34
 70
     1
102
RTVSPost2010Prop35
280
     0
102
RTVSPost2010PropOp35
 70
     1
102
RTVSPost2010Prop36
280
     0
102
RTVSPost2010PropOp36
 70
     1
102
RTVSPost2010Prop37
 90
       50
102
RTVSPost2010PropOp37
 70
     1
102
RTVSPost2010Prop38
140
0.0
102
RTVSPost2010PropOp38
 70
     1
102
RTVSPost2010Prop39
140
1.0
102
RTVSPost2010PropOp39
 70
     1
102
RTVSPost2010Prop40
 90
        0
102
RTVSPost2010PropOp40
 70
     1
102
RTVSPost2010Prop41ColorIndex
 90
       18
102
RTVSPost2010Prop41ColorRGB
 90
        0
102
RTVSPost2010PropOp41
 70
     1
102
RTVSPost2010Prop42
 90
       50
102
RTVSPost2010PropOp42
 70
     1
102
RTVSPost2010Prop43
 90
        3
102
RTVSPost2010PropOp43
 70
     1
102
RTVSPost2010Prop44ColorIndex
 90
        5
102
RTVSPost2010Prop44ColorRGB
 90
      255
102
RTVSPost2010PropOp44
 70
     1
102
RTVSPost2010Prop45
280
     0
102
RTVSPost2010PropOp45
 70
     1
102
RTVSPost2010Prop46
 90
       50
102
RTVSPost2010PropOp46
 70
     1
102
RTVSPost2010Prop47
 90
       50
102
RTVSPost2010PropOp47
 70
     1
102
RTVSPost2010Prop48
 90
       50
102
RTVSPost2010PropOp48
 70
     1
102
RTVSPost2010Prop49
280
     0
102
RTVSPost2010PropOp49
 70
     1
102
RTVSPost2010Prop50
 90
       50
102
RTVSPost2010PropOp50
 70
     1
102
RTVSPost2010Prop51ColorIndex
 90
      256
102
RTVSPost2010Prop51ColorRGB
 90
-16777216
102
RTVSPost2010PropOp51
 70
     0
102
RTVSPost2010Prop52
140
1.0
102
RTVSPost2010PropOp52
 70
     0
102
RTVSPost2010Prop53
 90
        2
102
RTVSPost2010PropOp53
 70
     1
102
RTVSPost2010Prop54
  1
strokes_ogs.tif
102
RTVSPost2010PropOp54
 70
     1
102
RTVSPost2010Prop55
280
     0
102
RTVSPost2010PropOp55
 70
     1
102
RTVSPost2010Prop56
140
1.0
102
RTVSPost2010PropOp56
 70
     1
102
RTVSPost2010Prop57
140
1.0
102
RTVSPost2010PropOp57
 70
     1
102
RTVSPropertyOp0
 70
     1
102
RTVSPropertyOp1
 70
     1
102
RTVSPropertyOp2
 70
     1
102
RTVSPropertyOp3
 70
     1
102
RTVSPropertyOp4
 70
     1
102
RTVSPropertyOp5
 70
     1
102
RTVSPropertyOp6
 70
     1
102
RTVSPropertyOp7
 70
     1
102
RTVSPropertyOp8
 70
     1
102
RTVSPropertyOp9
 70
     1
102
RTVSPropertyOp10
 70
     1
102
RTVSPropertyOp11
 70
     1
102
RTVSPropertyOp12
 70
     1
102
RTVSPropertyOp13
 70
     1
102
RTVSPropertyOp14
 70
     1
102
RTVSPropertyOp15
 70
     1
102
RTVSPropertyOp16
 70
     1
102
RTVSPropertyOp17
 70
     1
102
RTVSPropertyOp18
 70
     1
102
RTVSPropertyOp19
 70
     1
102
RTVSPropertyOp20
 70
     1
102
RTVSPropertyOp21
 70
     1
102
RTVSPropertyOp22
 70
     1
102
RTVSPropertyOp23
 70
     1
102
RTVSPropertyOp24
 70
     1
102
RTVSPropertyOp25
 70
     1
102
RTVSPropertyOp26
 70
     1
102
RTVSPropertyOp27
 70
     1
102
RTVSPropertyOp28
 70
     1
102
RTVSPropertyOp29
 70
     1
102
RTVSPropertyOp30
 70
     1
102
RTVSPropertyOp31
 70
     1
102
RTVSPropertyOp32
 70
     1
102
RTVSPropertyOp33
 70
     1
102
RTVSPropertyOp34
 70
     1
102
RTVSPropertyOp35
 70
     1
102
RTVSPropertyOp36
 70
     1
102
RTVSPropertyOp37
 70
     1
102
RTVSPropertyOp38
 70
     1
102
RTVSPropertyOp39
 70
     1
102
RTVSPropertyOp40
 70
     1
102
RTVSPropertyOp41
 70
     1
102
RTVSPropertyOp42
 70
     1
102
RTVSPropertyOp43
 70
     1
102
RTVSPropertyOp44
 70
     1
102
RTVSPropertyOp45
 70
     1
102
RTVSPropertyOp46
 70
     1
102
RTVSPropertyOp47
 70
     1
102
RTVSPropertyOp48
 70
     1
102
RTVSPropertyOp49
 70
     1
102
RTVSPropertyOp50
 70
     1
102
RTVSPropertyOp51
 70
     0
102
RTVSPropertyOp52
 70
     0
102
RTVSPropertyOp53
 70
     1
102
RTVSPropertyOp54
 70
     1
102
RTVSPropertyOp55
 70
     1
102
RTVSPropertyOp56
 70
     1
102
RTVSPropertyOp57
 70
     1
102
RTVSPropertyOp58
 70
     1
102
RTVSPropertyOp59
 70
     1
102
RTVSPropertyOp60
 70
     1
102
RTVSPropertyOp61
 70
     1
102
RTVSPropertyOp62
 70
     1
  0
XRECORD
  5
3D0
102
{ACAD_REACTORS
330
3CF
102
}
330
3CF
100
AcDbXrecord
280
     1
102
RTVSPost2010Prop28
280
     0
102
RTVSPost2010PropOp28
 70
     1
102
RTVSPost2010Prop29
280
     1
102
RTVSPost2010PropOp29
 70
     1
102
RTVSPost2010Prop30
280
     1
102
RTVSPost2010PropOp30
 70
     1
102
RTVSPost2010Prop31
280
     0
102
RTVSPost2010PropOp31
 70
     1
102
RTVSPost2010Prop32
280
     0
102
RTVSPost2010PropOp32
 70
     1
102
RTVSPost2010Prop33
280
     0
102
RTVSPost2010PropOp33
 70
     1
102
RTVSPost2010Prop34
280
     0
102
RTVSPost2010PropOp34
 70
     1
102
RTVSPost2010Prop35
280
     0
102
RTVSPost2010PropOp35
 70
     1
102
RTVSPost2010Prop36
280
     0
102
RTVSPost2010PropOp36
 70
     1
102
RTVSPost2010Prop37
 90
       50
102
RTVSPost2010PropOp37
 70
     1
102
RTVSPost2010Prop38
140
0.0
102
RTVSPost2010PropOp38
 70
     1
102
RTVSPost2010Prop39
140
1.0
102
RTVSPost2010PropOp39
 70
     1
102
RTVSPost2010Prop40
 90
        0
102
RTVSPost2010PropOp40
 70
     1
102
RTVSPost2010Prop41ColorIndex
 90
       18
102
RTVSPost2010Prop41ColorRGB
 90
        0
102
RTVSPost2010PropOp41
 70
     1
102
RTVSPost2010Prop42
 90
       50
102
RTVSPost2010PropOp42
 70
     1
102
RTVSPost2010Prop43
 90
        3
102
RTVSPost2010PropOp43
 70
     1
102
RTVSPost2010Prop44ColorIndex
 90
        5
102
RTVSPost2010Prop44ColorRGB
 90
      255
102
RTVSPost2010PropOp44
 70
     1
102
RTVSPost2010Prop45
280
     0
102
RTVSPost2010PropOp45
 70
     1
102
RTVSPost2010Prop46
 90
       50
102
RTVSPost2010PropOp46
 70
     1
102
RTVSPost2010Prop47
 90
       50
102
RTVSPost2010PropOp47
 70
     1
102
RTVSPost2010Prop48
 90
       50
102
RTVSPost2010PropOp48
 70
     1
102
RTVSPost2010Prop49
280
     0
102
RTVSPost2010PropOp49
 70
     1
102
RTVSPost2010Prop50
 90
       50
102
RTVSPost2010PropOp50
 70
     1
102
RTVSPost2010Prop51ColorIndex
 90
      256
102
RTVSPost2010Prop51ColorRGB
 90
-16777216
102
RTVSPost2010PropOp51
 70
     0
102
RTVSPost2010Prop52
140
1.0
102
RTVSPost2010PropOp52
 70
     0
102
RTVSPost2010Prop53
 90
        2
102
RTVSPost2010PropOp53
 70
     1
102
RTVSPost2010Prop54
  1
strokes_ogs.tif
102
RTVSPost2010PropOp54
 70
     1
102
RTVSPost2010Prop55
280
     0
102
RTVSPost2010PropOp55
 70
     1
102
RTVSPost2010Prop56
140
1.0
102
RTVSPost2010PropOp56
 70
     1
102
RTVSPost2010Prop57
140
1.0
102
RTVSPost2010PropOp57
 70
     1
102
RTVSPropertyOp0
 70
     1
102
RTVSPropertyOp1
 70
     1
102
RTVSPropertyOp2
 70
     1
102
RTVSPropertyOp3
 70
     1
102
RTVSPropertyOp4
 70
     1
102
RTVSPropertyOp5
 70
     1
102
RTVSPropertyOp6
 70
     1
102
RTVSPropertyOp7
 70
     1
102
RTVSPropertyOp8
 70
     1
102
RTVSPropertyOp9
 70
     1
102
RTVSPropertyOp10
 70
     1
102
RTVSPropertyOp11
 70
     1
102
RTVSPropertyOp12
 70
     1
102
RTVSPropertyOp13
 70
     1
102
RTVSPropertyOp14
 70
     1
102
RTVSPropertyOp15
 70
     1
102
RTVSPropertyOp16
 70
     1
102
RTVSPropertyOp17
 70
     1
102
RTVSPropertyOp18
 70
     1
102
RTVSPropertyOp19
 70
     1
102
RTVSPropertyOp20
 70
     1
102
RTVSPropertyOp21
 70
     1
102
RTVSPropertyOp22
 70
     1
102
RTVSPropertyOp23
 70
     1
102
RTVSPropertyOp24
 70
     1
102
RTVSPropertyOp25
 70
     1
102
RTVSPropertyOp26
 70
     1
102
RTVSPropertyOp27
 70
     1
102
RTVSPropertyOp28
 70
     1
102
RTVSPropertyOp29
 70
     1
102
RTVSPropertyOp30
 70
     1
102
RTVSPropertyOp31
 70
     1
102
RTVSPropertyOp32
 70
     1
102
RTVSPropertyOp33
 70
     1
102
RTVSPropertyOp34
 70
     1
102
RTVSPropertyOp35
 70
     1
102
RTVSPropertyOp36
 70
     1
102
RTVSPropertyOp37
 70
     1
102
RTVSPropertyOp38
 70
     1
102
RTVSPropertyOp39
 70
     1
102
RTVSPropertyOp40
 70
     1
102
RTVSPropertyOp41
 70
     1
102
RTVSPropertyOp42
 70
     1
102
RTVSPropertyOp43
 70
     1
102
RTVSPropertyOp44
 70
     1
102
RTVSPropertyOp45
 70
     1
102
RTVSPropertyOp46
 70
     1
102
RTVSPropertyOp47
 70
     1
102
RTVSPropertyOp48
 70
     1
102
RTVSPropertyOp49
 70
     1
102
RTVSPropertyOp50
 70
     1
102
RTVSPropertyOp51
 70
     0
102
RTVSPropertyOp52
 70
     0
102
RTVSPropertyOp53
 70
     1
102
RTVSPropertyOp54
 70
     1
102
RTVSPropertyOp55
 70
     1
102
RTVSPropertyOp56
 70
     1
102
RTVSPropertyOp57
 70
     1
102
RTVSPropertyOp58
 70
     1
102
RTVSPropertyOp59
 70
     1
102
RTVSPropertyOp60
 70
     1
102
RTVSPropertyOp61
 70
     1
102
RTVSPropertyOp62
 70
     1
  0
XRECORD
  5
3D2
102
{ACAD_REACTORS
330
3D1
102
}
330
3D1
100
AcDbXrecord
280
     1
102
RTVSPost2010Prop28
280
     0
102
RTVSPost2010PropOp28
 70
     1
102
RTVSPost2010Prop29
280
     1
102
RTVSPost2010PropOp29
 70
     1
102
RTVSPost2010Prop30
280
     1
102
RTVSPost2010PropOp30
 70
     1
102
RTVSPost2010Prop31
280
     0
102
RTVSPost2010PropOp31
 70
     1
102
RTVSPost2010Prop32
280
     0
102
RTVSPost2010PropOp32
 70
     1
102
RTVSPost2010Prop33
280
     0
102
RTVSPost2010PropOp33
 70
     1
102
RTVSPost2010Prop34
280
     0
102
RTVSPost2010PropOp34
 70
     1
102
RTVSPost2010Prop35
280
     0
102
RTVSPost2010PropOp35
 70
     1
102
RTVSPost2010Prop36
280
     0
102
RTVSPost2010PropOp36
 70
     1
102
RTVSPost2010Prop37
 90
       50
102
RTVSPost2010PropOp37
 70
     1
102
RTVSPost2010Prop38
140
0.0
102
RTVSPost2010PropOp38
 70
     1
102
RTVSPost2010Prop39
140
1.0
102
RTVSPost2010PropOp39
 70
     1
102
RTVSPost2010Prop40
 90
        0
102
RTVSPost2010PropOp40
 70
     1
102
RTVSPost2010Prop41ColorIndex
 90
       18
102
RTVSPost2010Prop41ColorRGB
 90
        0
102
RTVSPost2010PropOp41
 70
     1
102
RTVSPost2010Prop42
 90
       50
102
RTVSPost2010PropOp42
 70
     1
102
RTVSPost2010Prop43
 90
        3
102
RTVSPost2010PropOp43
 70
     1
102
RTVSPost2010Prop44ColorIndex
 90
        5
102
RTVSPost2010Prop44ColorRGB
 90
      255
102
RTVSPost2010PropOp44
 70
     1
102
RTVSPost2010Prop45
280
     0
102
RTVSPost2010PropOp45
 70
     1
102
RTVSPost2010Prop46
 90
       50
102
RTVSPost2010PropOp46
 70
     1
102
RTVSPost2010Prop47
 90
       50
102
RTVSPost2010PropOp47
 70
     1
102
RTVSPost2010Prop48
 90
       50
102
RTVSPost2010PropOp48
 70
     1
102
RTVSPost2010Prop49
280
     0
102
RTVSPost2010PropOp49
 70
     1
102
RTVSPost2010Prop50
 90
       50
102
RTVSPost2010PropOp50
 70
     1
102
RTVSPost2010Prop51ColorIndex
 90
      256
102
RTVSPost2010Prop51ColorRGB
 90
-16777216
102
RTVSPost2010PropOp51
 70
     0
102
RTVSPost2010Prop52
140
1.0
102
RTVSPost2010PropOp52
 70
     0
102
RTVSPost2010Prop53
 90
        2
102
RTVSPost2010PropOp53
 70
     1
102
RTVSPost2010Prop54
  1
strokes_ogs.tif
102
RTVSPost2010PropOp54
 70
     1
102
RTVSPost2010Prop55
280
     0
102
RTVSPost2010PropOp55
 70
     1
102
RTVSPost2010Prop56
140
1.0
102
RTVSPost2010PropOp56
 70
     1
102
RTVSPost2010Prop57
140
1.0
102
RTVSPost2010PropOp57
 70
     1
102
RTVSPropertyOp0
 70
     1
102
RTVSPropertyOp1
 70
     1
102
RTVSPropertyOp2
 70
     1
102
RTVSPropertyOp3
 70
     1
102
RTVSPropertyOp4
 70
     1
102
RTVSPropertyOp5
 70
     1
102
RTVSPropertyOp6
 70
     1
102
RTVSPropertyOp7
 70
     1
102
RTVSPropertyOp8
 70
     1
102
RTVSPropertyOp9
 70
     1
102
RTVSPropertyOp10
 70
     1
102
RTVSPropertyOp11
 70
     1
102
RTVSPropertyOp12
 70
     1
102
RTVSPropertyOp13
 70
     1
102
RTVSPropertyOp14
 70
     1
102
RTVSPropertyOp15
 70
     1
102
RTVSPropertyOp16
 70
     1
102
RTVSPropertyOp17
 70
     1
102
RTVSPropertyOp18
 70
     1
102
RTVSPropertyOp19
 70
     1
102
RTVSPropertyOp20
 70
     1
102
RTVSPropertyOp21
 70
     1
102
RTVSPropertyOp22
 70
     1
102
RTVSPropertyOp23
 70
     1
102
RTVSPropertyOp24
 70
     1
102
RTVSPropertyOp25
 70
     1
102
RTVSPropertyOp26
 70
     1
102
RTVSPropertyOp27
 70
     1
102
RTVSPropertyOp28
 70
     1
102
RTVSPropertyOp29
 70
     1
102
RTVSPropertyOp30
 70
     1
102
RTVSPropertyOp31
 70
     1
102
RTVSPropertyOp32
 70
     1
102
RTVSPropertyOp33
 70
     1
102
RTVSPropertyOp34
 70
     1
102
RTVSPropertyOp35
 70
     1
102
RTVSPropertyOp36
 70
     1
102
RTVSPropertyOp37
 70
     1
102
RTVSPropertyOp38
 70
     1
102
RTVSPropertyOp39
 70
     1
102
RTVSPropertyOp40
 70
     1
102
RTVSPropertyOp41
 70
     1
102
RTVSPropertyOp42
 70
     1
102
RTVSPropertyOp43
 70
     1
102
RTVSPropertyOp44
 70
     1
102
RTVSPropertyOp45
 70
     1
102
RTVSPropertyOp46
 70
     1
102
RTVSPropertyOp47
 70
     1
102
RTVSPropertyOp48
 70
     1
102
RTVSPropertyOp49
 70
     1
102
RTVSPropertyOp50
 70
     1
102
RTVSPropertyOp51
 70
     0
102
RTVSPropertyOp52
 70
     0
102
RTVSPropertyOp53
 70
     1
102
RTVSPropertyOp54
 70
     1
102
RTVSPropertyOp55
 70
     1
102
RTVSPropertyOp56
 70
     1
102
RTVSPropertyOp57
 70
     1
102
RTVSPropertyOp58
 70
     1
102
RTVSPropertyOp59
 70
     1
102
RTVSPropertyOp60
 70
     1
102
RTVSPropertyOp61
 70
     1
102
RTVSPropertyOp62
 70
     1
  0
XRECORD
  5
3C8
102
{ACAD_REACTORS
330
3C7
102
}
330
3C7
100
AcDbXrecord
280
     1
102
RTVSPost2010Prop28
280
     0
102
RTVSPost2010PropOp28
 70
     1
102
RTVSPost2010Prop29
280
     1
102
RTVSPost2010PropOp29
 70
     1
102
RTVSPost2010Prop30
280
     1
102
RTVSPost2010PropOp30
 70
     1
102
RTVSPost2010Prop31
280
     0
102
RTVSPost2010PropOp31
 70
     1
102
RTVSPost2010Prop32
280
     0
102
RTVSPost2010PropOp32
 70
     1
102
RTVSPost2010Prop33
280
     0
102
RTVSPost2010PropOp33
 70
     1
102
RTVSPost2010Prop34
280
     0
102
RTVSPost2010PropOp34
 70
     1
102
RTVSPost2010Prop35
280
     0
102
RTVSPost2010PropOp35
 70
     1
102
RTVSPost2010Prop36
280
     0
102
RTVSPost2010PropOp36
 70
     1
102
RTVSPost2010Prop37
 90
       50
102
RTVSPost2010PropOp37
 70
     1
102
RTVSPost2010Prop38
140
0.0
102
RTVSPost2010PropOp38
 70
     1
102
RTVSPost2010Prop39
140
1.0
102
RTVSPost2010PropOp39
 70
     1
102
RTVSPost2010Prop40
 90
        0
102
RTVSPost2010PropOp40
 70
     1
102
RTVSPost2010Prop41ColorIndex
 90
       18
102
RTVSPost2010Prop41ColorRGB
 90
        0
102
RTVSPost2010PropOp41
 70
     1
102
RTVSPost2010Prop42
 90
       50
102
RTVSPost2010PropOp42
 70
     1
102
RTVSPost2010Prop43
 90
        3
102
RTVSPost2010PropOp43
 70
     1
102
RTVSPost2010Prop44ColorIndex
 90
        5
102
RTVSPost2010Prop44ColorRGB
 90
      255
102
RTVSPost2010PropOp44
 70
     1
102
RTVSPost2010Prop45
280
     0
102
RTVSPost2010PropOp45
 70
     1
102
RTVSPost2010Prop46
 90
       50
102
RTVSPost2010PropOp46
 70
     1
102
RTVSPost2010Prop47
 90
       50
102
RTVSPost2010PropOp47
 70
     1
102
RTVSPost2010Prop48
 90
       50
102
RTVSPost2010PropOp48
 70
     1
102
RTVSPost2010Prop49
280
     0
102
RTVSPost2010PropOp49
 70
     1
102
RTVSPost2010Prop50
 90
       50
102
RTVSPost2010PropOp50
 70
     1
102
RTVSPost2010Prop51ColorIndex
 90
      256
102
RTVSPost2010Prop51ColorRGB
 90
-16777216
102
RTVSPost2010PropOp51
 70
     0
102
RTVSPost2010Prop52
140
1.0
102
RTVSPost2010PropOp52
 70
     0
102
RTVSPost2010Prop53
 90
        2
102
RTVSPost2010PropOp53
 70
     1
102
RTVSPost2010Prop54
  1
strokes_ogs.tif
102
RTVSPost2010PropOp54
 70
     1
102
RTVSPost2010Prop55
280
     0
102
RTVSPost2010PropOp55
 70
     1
102
RTVSPost2010Prop56
140
1.0
102
RTVSPost2010PropOp56
 70
     1
102
RTVSPost2010Prop57
140
1.0
102
RTVSPost2010PropOp57
 70
     1
102
RTVSPropertyOp0
 70
     1
102
RTVSPropertyOp1
 70
     1
102
RTVSPropertyOp2
 70
     1
102
RTVSPropertyOp3
 70
     1
102
RTVSPropertyOp4
 70
     1
102
RTVSPropertyOp5
 70
     1
102
RTVSPropertyOp6
 70
     1
102
RTVSPropertyOp7
 70
     1
102
RTVSPropertyOp8
 70
     1
102
RTVSPropertyOp9
 70
     1
102
RTVSPropertyOp10
 70
     1
102
RTVSPropertyOp11
 70
     1
102
RTVSPropertyOp12
 70
     1
102
RTVSPropertyOp13
 70
     1
102
RTVSPropertyOp14
 70
     1
102
RTVSPropertyOp15
 70
     1
102
RTVSPropertyOp16
 70
     1
102
RTVSPropertyOp17
 70
     1
102
RTVSPropertyOp18
 70
     1
102
RTVSPropertyOp19
 70
     1
102
RTVSPropertyOp20
 70
     1
102
RTVSPropertyOp21
 70
     1
102
RTVSPropertyOp22
 70
     1
102
RTVSPropertyOp23
 70
     1
102
RTVSPropertyOp24
 70
     1
102
RTVSPropertyOp25
 70
     1
102
RTVSPropertyOp26
 70
     1
102
RTVSPropertyOp27
 70
     1
102
RTVSPropertyOp28
 70
     1
102
RTVSPropertyOp29
 70
     1
102
RTVSPropertyOp30
 70
     1
102
RTVSPropertyOp31
 70
     1
102
RTVSPropertyOp32
 70
     1
102
RTVSPropertyOp33
 70
     1
102
RTVSPropertyOp34
 70
     1
102
RTVSPropertyOp35
 70
     1
102
RTVSPropertyOp36
 70
     1
102
RTVSPropertyOp37
 70
     1
102
RTVSPropertyOp38
 70
     1
102
RTVSPropertyOp39
 70
     1
102
RTVSPropertyOp40
 70
     1
102
RTVSPropertyOp41
 70
     1
102
RTVSPropertyOp42
 70
     1
102
RTVSPropertyOp43
 70
     1
102
RTVSPropertyOp44
 70
     1
102
RTVSPropertyOp45
 70
     1
102
RTVSPropertyOp46
 70
     1
102
RTVSPropertyOp47
 70
     1
102
RTVSPropertyOp48
 70
     1
102
RTVSPropertyOp49
 70
     1
102
RTVSPropertyOp50
 70
     1
102
RTVSPropertyOp51
 70
     0
102
RTVSPropertyOp52
 70
     0
102
RTVSPropertyOp53
 70
     1
102
RTVSPropertyOp54
 70
     1
102
RTVSPropertyOp55
 70
     1
102
RTVSPropertyOp56
 70
     1
102
RTVSPropertyOp57
 70
     1
102
RTVSPropertyOp58
 70
     1
102
RTVSPropertyOp59
 70
     1
102
RTVSPropertyOp60
 70
     1
102
RTVSPropertyOp61
 70
     1
102
RTVSPropertyOp62
 70
     1
  0
XRECORD
  5
3BC
102
{ACAD_REACTORS
330
3BB
102
}
330
3BB
100
AcDbXrecord
280
     1
102
RTVSPost2010Prop28
280
     0
102
RTVSPost2010PropOp28
 70
     1
102
RTVSPost2010Prop29
280
     1
102
RTVSPost2010PropOp29
 70
     1
102
RTVSPost2010Prop30
280
     1
102
RTVSPost2010PropOp30
 70
     1
102
RTVSPost2010Prop31
280
     0
102
RTVSPost2010PropOp31
 70
     1
102
RTVSPost2010Prop32
280
     0
102
RTVSPost2010PropOp32
 70
     1
102
RTVSPost2010Prop33
280
     0
102
RTVSPost2010PropOp33
 70
     1
102
RTVSPost2010Prop34
280
     0
102
RTVSPost2010PropOp34
 70
     1
102
RTVSPost2010Prop35
280
     0
102
RTVSPost2010PropOp35
 70
     1
102
RTVSPost2010Prop36
280
     0
102
RTVSPost2010PropOp36
 70
     1
102
RTVSPost2010Prop37
 90
       50
102
RTVSPost2010PropOp37
 70
     1
102
RTVSPost2010Prop38
140
0.0
102
RTVSPost2010PropOp38
 70
     1
102
RTVSPost2010Prop39
140
1.0
102
RTVSPost2010PropOp39
 70
     1
102
RTVSPost2010Prop40
 90
        0
102
RTVSPost2010PropOp40
 70
     1
102
RTVSPost2010Prop41ColorIndex
 90
       18
102
RTVSPost2010Prop41ColorRGB
 90
        0
102
RTVSPost2010PropOp41
 70
     1
102
RTVSPost2010Prop42
 90
       50
102
RTVSPost2010PropOp42
 70
     1
102
RTVSPost2010Prop43
 90
        3
102
RTVSPost2010PropOp43
 70
     1
102
RTVSPost2010Prop44ColorIndex
 90
        5
102
RTVSPost2010Prop44ColorRGB
 90
      255
102
RTVSPost2010PropOp44
 70
     1
102
RTVSPost2010Prop45
280
     0
102
RTVSPost2010PropOp45
 70
     1
102
RTVSPost2010Prop46
 90
       50
102
RTVSPost2010PropOp46
 70
     1
102
RTVSPost2010Prop47
 90
       50
102
RTVSPost2010PropOp47
 70
     1
102
RTVSPost2010Prop48
 90
       50
102
RTVSPost2010PropOp48
 70
     1
102
RTVSPost2010Prop49
280
     0
102
RTVSPost2010PropOp49
 70
     1
102
RTVSPost2010Prop50
 90
       50
102
RTVSPost2010PropOp50
 70
     1
102
RTVSPost2010Prop51ColorIndex
 90
      256
102
RTVSPost2010Prop51ColorRGB
 90
-16777216
102
RTVSPost2010PropOp51
 70
     0
102
RTVSPost2010Prop52
140
1.0
102
RTVSPost2010PropOp52
 70
     0
102
RTVSPost2010Prop53
 90
        2
102
RTVSPost2010PropOp53
 70
     1
102
RTVSPost2010Prop54
  1
strokes_ogs.tif
102
RTVSPost2010PropOp54
 70
     1
102
RTVSPost2010Prop55
280
     0
102
RTVSPost2010PropOp55
 70
     1
102
RTVSPost2010Prop56
140
1.0
102
RTVSPost2010PropOp56
 70
     1
102
RTVSPost2010Prop57
140
1.0
102
RTVSPost2010PropOp57
 70
     1
102
RTVSPropertyOp0
 70
     1
102
RTVSPropertyOp1
 70
     1
102
RTVSPropertyOp2
 70
     1
102
RTVSPropertyOp3
 70
     1
102
RTVSPropertyOp4
 70
     1
102
RTVSPropertyOp5
 70
     1
102
RTVSPropertyOp6
 70
     1
102
RTVSPropertyOp7
 70
     1
102
RTVSPropertyOp8
 70
     1
102
RTVSPropertyOp9
 70
     1
102
RTVSPropertyOp10
 70
     1
102
RTVSPropertyOp11
 70
     1
102
RTVSPropertyOp12
 70
     1
102
RTVSPropertyOp13
 70
     1
102
RTVSPropertyOp14
 70
     1
102
RTVSPropertyOp15
 70
     1
102
RTVSPropertyOp16
 70
     1
102
RTVSPropertyOp17
 70
     1
102
RTVSPropertyOp18
 70
     1
102
RTVSPropertyOp19
 70
     1
102
RTVSPropertyOp20
 70
     1
102
RTVSPropertyOp21
 70
     1
102
RTVSPropertyOp22
 70
     1
102
RTVSPropertyOp23
 70
     1
102
RTVSPropertyOp24
 70
     1
102
RTVSPropertyOp25
 70
     1
102
RTVSPropertyOp26
 70
     1
102
RTVSPropertyOp27
 70
     1
102
RTVSPropertyOp28
 70
     1
102
RTVSPropertyOp29
 70
     1
102
RTVSPropertyOp30
 70
     1
102
RTVSPropertyOp31
 70
     1
102
RTVSPropertyOp32
 70
     1
102
RTVSPropertyOp33
 70
     1
102
RTVSPropertyOp34
 70
     1
102
RTVSPropertyOp35
 70
     1
102
RTVSPropertyOp36
 70
     1
102
RTVSPropertyOp37
 70
     1
102
RTVSPropertyOp38
 70
     1
102
RTVSPropertyOp39
 70
     1
102
RTVSPropertyOp40
 70
     1
102
RTVSPropertyOp41
 70
     1
102
RTVSPropertyOp42
 70
     1
102
RTVSPropertyOp43
 70
     1
102
RTVSPropertyOp44
 70
     1
102
RTVSPropertyOp45
 70
     1
102
RTVSPropertyOp46
 70
     1
102
RTVSPropertyOp47
 70
     1
102
RTVSPropertyOp48
 70
     1
102
RTVSPropertyOp49
 70
     1
102
RTVSPropertyOp50
 70
     1
102
RTVSPropertyOp51
 70
     0
102
RTVSPropertyOp52
 70
     0
102
RTVSPropertyOp53
 70
     1
102
RTVSPropertyOp54
 70
     1
102
RTVSPropertyOp55
 70
     1
102
RTVSPropertyOp56
 70
     1
102
RTVSPropertyOp57
 70
     1
102
RTVSPropertyOp58
 70
     1
102
RTVSPropertyOp59
 70
     1
102
RTVSPropertyOp60
 70
     1
102
RTVSPropertyOp61
 70
     1
102
RTVSPropertyOp62
 70
     1
  0
XRECORD
  5
3D4
102
{ACAD_REACTORS
330
3D3
102
}
330
3D3
100
AcDbXrecord
280
     1
102
RTVSPost2010Prop28
280
     0
102
RTVSPost2010PropOp28
 70
     1
102
RTVSPost2010Prop29
280
     1
102
RTVSPost2010PropOp29
 70
     1
102
RTVSPost2010Prop30
280
     1
102
RTVSPost2010PropOp30
 70
     1
102
RTVSPost2010Prop31
280
     0
102
RTVSPost2010PropOp31
 70
     1
102
RTVSPost2010Prop32
280
     0
102
RTVSPost2010PropOp32
 70
     1
102
RTVSPost2010Prop33
280
     0
102
RTVSPost2010PropOp33
 70
     1
102
RTVSPost2010Prop34
280
     0
102
RTVSPost2010PropOp34
 70
     1
102
RTVSPost2010Prop35
280
     0
102
RTVSPost2010PropOp35
 70
     1
102
RTVSPost2010Prop36
280
     0
102
RTVSPost2010PropOp36
 70
     1
102
RTVSPost2010Prop37
 90
       50
102
RTVSPost2010PropOp37
 70
     1
102
RTVSPost2010Prop38
140
0.0
102
RTVSPost2010PropOp38
 70
     1
102
RTVSPost2010Prop39
140
1.0
102
RTVSPost2010PropOp39
 70
     1
102
RTVSPost2010Prop40
 90
        0
102
RTVSPost2010PropOp40
 70
     1
102
RTVSPost2010Prop41ColorIndex
 90
       18
102
RTVSPost2010Prop41ColorRGB
 90
        0
102
RTVSPost2010PropOp41
 70
     1
102
RTVSPost2010Prop42
 90
       50
102
RTVSPost2010PropOp42
 70
     1
102
RTVSPost2010Prop43
 90
        3
102
RTVSPost2010PropOp43
 70
     1
102
RTVSPost2010Prop44ColorIndex
 90
        5
102
RTVSPost2010Prop44ColorRGB
 90
      255
102
RTVSPost2010PropOp44
 70
     1
102
RTVSPost2010Prop45
280
     0
102
RTVSPost2010PropOp45
 70
     1
102
RTVSPost2010Prop46
 90
       50
102
RTVSPost2010PropOp46
 70
     1
102
RTVSPost2010Prop47
 90
       50
102
RTVSPost2010PropOp47
 70
     1
102
RTVSPost2010Prop48
 90
       50
102
RTVSPost2010PropOp48
 70
     1
102
RTVSPost2010Prop49
280
     0
102
RTVSPost2010PropOp49
 70
     1
102
RTVSPost2010Prop50
 90
       50
102
RTVSPost2010PropOp50
 70
     1
102
RTVSPost2010Prop51ColorIndex
 90
      256
102
RTVSPost2010Prop51ColorRGB
 90
-16777216
102
RTVSPost2010PropOp51
 70
     0
102
RTVSPost2010Prop52
140
1.0
102
RTVSPost2010PropOp52
 70
     0
102
RTVSPost2010Prop53
 90
        2
102
RTVSPost2010PropOp53
 70
     1
102
RTVSPost2010Prop54
  1
strokes_ogs.tif
102
RTVSPost2010PropOp54
 70
     1
102
RTVSPost2010Prop55
280
     0
102
RTVSPost2010PropOp55
 70
     1
102
RTVSPost2010Prop56
140
1.0
102
RTVSPost2010PropOp56
 70
     1
102
RTVSPost2010Prop57
140
1.0
102
RTVSPost2010PropOp57
 70
     1
102
RTVSPropertyOp0
 70
     1
102
RTVSPropertyOp1
 70
     1
102
RTVSPropertyOp2
 70
     1
102
RTVSPropertyOp3
 70
     1
102
RTVSPropertyOp4
 70
     1
102
RTVSPropertyOp5
 70
     1
102
RTVSPropertyOp6
 70
     1
102
RTVSPropertyOp7
 70
     1
102
RTVSPropertyOp8
 70
     1
102
RTVSPropertyOp9
 70
     1
102
RTVSPropertyOp10
 70
     1
102
RTVSPropertyOp11
 70
     1
102
RTVSPropertyOp12
 70
     1
102
RTVSPropertyOp13
 70
     1
102
RTVSPropertyOp14
 70
     1
102
RTVSPropertyOp15
 70
     1
102
RTVSPropertyOp16
 70
     1
102
RTVSPropertyOp17
 70
     1
102
RTVSPropertyOp18
 70
     1
102
RTVSPropertyOp19
 70
     1
102
RTVSPropertyOp20
 70
     1
102
RTVSPropertyOp21
 70
     1
102
RTVSPropertyOp22
 70
     1
102
RTVSPropertyOp23
 70
     1
102
RTVSPropertyOp24
 70
     1
102
RTVSPropertyOp25
 70
     1
102
RTVSPropertyOp26
 70
     1
102
RTVSPropertyOp27
 70
     1
102
RTVSPropertyOp28
 70
     1
102
RTVSPropertyOp29
 70
     1
102
RTVSPropertyOp30
 70
     1
102
RTVSPropertyOp31
 70
     1
102
RTVSPropertyOp32
 70
     1
102
RTVSPropertyOp33
 70
     1
102
RTVSPropertyOp34
 70
     1
102
RTVSPropertyOp35
 70
     1
102
RTVSPropertyOp36
 70
     1
102
RTVSPropertyOp37
 70
     1
102
RTVSPropertyOp38
 70
     1
102
RTVSPropertyOp39
 70
     1
102
RTVSPropertyOp40
 70
     1
102
RTVSPropertyOp41
 70
     1
102
RTVSPropertyOp42
 70
     1
102
RTVSPropertyOp43
 70
     1
102
RTVSPropertyOp44
 70
     1
102
RTVSPropertyOp45
 70
     1
102
RTVSPropertyOp46
 70
     1
102
RTVSPropertyOp47
 70
     1
102
RTVSPropertyOp48
 70
     1
102
RTVSPropertyOp49
 70
     1
102
RTVSPropertyOp50
 70
     1
102
RTVSPropertyOp51
 70
     0
102
RTVSPropertyOp52
 70
     0
102
RTVSPropertyOp53
 70
     1
102
RTVSPropertyOp54
 70
     1
102
RTVSPropertyOp55
 70
     1
102
RTVSPropertyOp56
 70
     1
102
RTVSPropertyOp57
 70
     1
102
RTVSPropertyOp58
 70
     1
102
RTVSPropertyOp59
 70
     1
102
RTVSPropertyOp60
 70
     1
102
RTVSPropertyOp61
 70
     1
102
RTVSPropertyOp62
 70
     1
  0
ENDSEC
  0
EOF
